Your One-Stop Source For
Music Lyrics
Bass and Guitar Tabs
and More...
>Music Lyrics Bass and Guitar Tabs

 

The Tabs Are Below

Learn To Read Tab
Chords Handbook
Corrections & Additions
Get Official Tab
Bush tabs @ 911Tabs

history - guitar

homebody - guitar

 

intro:

E---------------------------------------------------|

B---------------------------------------------------|

G------------------------------------------10-------|

D---------------------------------------------12----|

A-4-4/5--8\7--8/7--12\11--12/11-12\11-12------------|

E---------------------------------------------------|

 

pre-chorus:

A and F# barre chords (arpeggiate occasionally)

 

chorus:

B and G barre chords (also arpeggiate)

 

bridge type thing:

 

E---------------------------------------------------|

B---------------------------------------------------|

G-6--9--7-/9--6--9--7--9----------------------------|

D-6--9--7-/9--6--9--7--9----------------------------|

A---------------------------------------------------|

E---------------------------------------------------|

 

the verses are just variations on the intro

 

*englishfire1@aol.com

 

Return to my to my Bush tabs page

The Tablature is Copyright its respective owners.

Sign Up For My Newsletter
Subscribe | Unsubscribe

Site Map | Disclaimer | Privacy Policy | Media Kit | Submissions/Corrections

Website © 2000-2014 mattsmusicpage.com. All rights reserved.

Legal & DMCA: Matt's Music Page has been providing lyrics and tabs in a legal way, paying royalties each year to a few organizations. Then, all lyrics and tabs were removed from the site. Now, there's a new owner to the site, which purchased it August 26, 2014, and he is in negotiation to obtain licensing from BMI at the moment. If you have a specific DMCA request -- please do not hesitate to contact me via the contact button on top. I will do my very best to keep this site fully legal.

Get our toolbar!

 

1906 HOHNER CHIMEWOOD HARMONICA AD
$9.99
1906 HOHNER CHIMEWOOD HARMONICA AD picture


1957 USSR RUSSIAN FIRST SOVIET SATELLITE HARMONICA
$20.0
1957 USSR RUSSIAN FIRST SOVIET SATELLITE HARMONICA picture


13 Vintage Cracker Jack Toys Plastic Charms Mini Harmonica Porky Pig Scottie Dog
$9.99
13 Vintage Cracker Jack Toys Plastic Charms Mini Harmonica Porky Pig Scottie Dog picture


1927 VINTAGE AD: Hohner Harmonicas John Philip Sousa Marches Music Band Leader
$9.95
1927 VINTAGE AD: Hohner Harmonicas John Philip Sousa Marches Music Band Leader picture


5-Minute Guaranteed Harmonica Course booklet 1926 M M Cole Publishing
$9.99
5-Minute Guaranteed Harmonica Course booklet 1926 M M Cole Publishing picture