Your One-Stop Source For
Music Lyrics
Bass and Guitar Tabs
and More...
Music Lyrics Bass and Guitar Tabs

 

The Tabs Are Below

Learn To Read Tab
Chords Handbook
Corrections & Additions
Get Official Tab
Bush tabs @ 911Tabs

Greedy Fly

by Bush

 

Intro (play w/ fingers)

--8-------------------|------------8--------|-----------8---------|-------------8--------|-----------8--------|

------8--8--8----8--|------8------8---8-|-------8----8-----8-|------8------8----8--|-------8----8-----8-|

--------8--8---------|---11--11----11--|-----8---8-----------|---11--11----11---|-----8---8-----------|

-10-----------10---|-9-------------------|-10-----------10----|-9-------------------|-10-----------10----|

----------------------|----------------------|-----------------------|---------------------|----------------------|

----------------------|----------------------|-----------------------|----------------------|-----------------------|

 

 

Riff A

-----------8---------|-------------8--------|

-------8----8-----8-|------8------8----8--| Repeat Riff A once

-----8---8-----------|---11--11----11---|

-10-----------10----|-9-------------------|

----------------------|----------------------|

----------------------|----------------------|

 

Verse

--------------------------|---------------------|--------------------------|---------------------|

--------------------------|----------------------|-------------------------|----------------------|

-5--5--3--5------------|---------------------|-5--5--3--5------------|---------------------|

-5--5--5--5--6--6--6-|-6--6--6--6--6--6|-5--5--5--5--6--6--6-|-6--6--6--6--6--6|

-3--3--3--3--6--6--6-|-6--6--6--6--6--6|-3--3--3--3--6--6--6-|-6--6--6--6--6--6|

----------------4--4--4-|-4--4--4--4--4--4|----------------4--4--4-|-4--4--4--4--4--4|

 

Pre-chorus

---------------------------------------|

--8---8---8---8---8--8------------|

--8---8---8---8---8--8---8---8--|

-10-10-10-10-10-10-10-10-|

----------------------------11-11-|

 

Chorus

----------------------------|----------------------|---------------------------|----------------------------|

----------------------------|----------------------|---------------------------|----------------------------|

-7--7\2--2--2/5--5--5\2--2/5--5\2--2/7-|-7--7\2--2--2/5--5--5-|-7--7\2--2--2/5--5--5-|

-8--8\3--3--3/6--6--6\3--3/6--6\3--3/8-|-8--8\3--3--3/6--6--6-|-8--8\3--3--3/6--6--6-|

-8--8\3--3--3/6--6--6\3--3/6--6\3--3/8-|-8--8\3--3--3/6--6--6-|-8--8\3--3--3/6--6--6-|

-6--6\1--1--1/4--4--4\1--1/4--4\1--1/7-|-6--6\1--1--1/1--4--4-|-6--6\1--1--1/4--4--4-|

 

Pre-solo Interlude

--------------------------|----------------------|--------------------------|---------------------|-------|

--------------------------|----------------------|--------------------------|---------------------|--------|

-5--5--3--5------------|----------------------|-5--5--3--5------------|---------------------|---5---|

-5--5--5--5--6--6--6-|-6--6--6--6--6--6|-5--5--5--5--6--6--6-|-6--6--6--6--6--6|---6---|

-3--3--3--3--6--6--6-|-6--6--6--6--6--6|-3--3--3--3--6--6--6-|-6--6--6--6--6--6|---6---|

----------------4--4--4-|-4--4--4--4--4--4|----------------4--4--4-|-4--4--4--4--4--4|---4---|

 

-------------------------|-8---------8------------|-8-------8------------|

-------------------------|----9--9----------------|---9--9---------------|

-\2--2--2/5--5\2--2-|---------------10--10-|-------------10--10\-|

-\3--3--3/6--6\3--3-|-------------------------|-----------------------|

-\3--3--3/6--6\3--3-|-------------------------|------------------------|

-\1--1--1/4--4\1--1-|-------------------------|-----------------------|

 

Solo (fullstep)

-----|----------------------------|--------------------|-------------|---------------|----------------------|----------|-------

-----|----------------------------|---------------------|------------|---------------|----------------------|-----11-|11b11

-----|----------------------------|--------------8----|---8~~~~-|----------10-|-10b(fullstep)10-|----------|---------------|---------------------------|-------10----------|------------|--------------|-----------------------|------------|------

-10--|-13\12--10--6-------6|-------------------|--------------|--------------|----------------------|------------|------

--8---|-11\10---8---4-------4|-------------------|--------------|-------------|-----------------------|------------|------

 

-----|

-----|

-----|

-----|

-10-|

--8-|

 

 

Post-solo Interlude

|---------------------------|----------------------------|

|---------------------------|----------------------------| Play three times

|-7--7\2--2--2/5--5--5-|-7--7\2--2--2/5--5--5-|

|-8--8\3--3--3/6--6--6-|-8--8\3--3--3/6--6--6-|

|-8--8\3--3--3/6--6--6-|-8--8\3--3--3/6--6--6-|

|-6--6\1--1--1/1--4--4-|-6--6\1--1--1/4--4--4-|

 

I hope you enjoy this, Email me any corrections,requests

If you have the tab to STP's Interstate Love Song or anything by Ash

please send them to me at Nugget 82@aol.com

 

 

 

Return to my to my Bush tabs page

The Tablature is Copyright its respective owners.

Sign Up For My Newsletter
Subscribe | Unsubscribe

Site Map | Disclaimer | Privacy Policy | Media Kit | Submissions/Corrections

Website © 2000-2014 mattsmusicpage.com. All rights reserved.

Legal & DMCA: Matt's Music Page has been providing lyrics and tabs in a legal way, paying royalties each year to a few organizations. Then, all lyrics and tabs were removed from the site. Now, there's a new owner to the site, which purchased it August 26, 2014, and he is in negotiation to obtain licensing from BMI at the moment. If you have a specific DMCA request -- please do not hesitate to contact me via the contact button on top. I will do my very best to keep this site fully legal.

Get our toolbar!