Your One-Stop Source For
Music Lyrics
Bass and Guitar Tabs
and More...
Music Lyrics Bass and Guitar Tabs

 

The Tabs Are Below

Learn To Read Tab
Chords Handbook
Corrections & Additions
Get Official Tab
Bush tabs @ 911Tabs

Distant Voices

Bush

 

 

Part A: Fill 1

Guitar 1

e|--------------------|--------|

b|--------------------|--------|

g|--7--/11---\7--/11--|--11\7--|

d|--------------------|--------|

a|--5---/9---\5---/9--|--------|

E|--------------------|--------|

 

Guitar 2

e|-----------------2--|

b|-----------------2--|

g|--7--/11---\7----3--|

d|-----------------4--|

a|--5---/9---\5----4--|

E|-----------------2--|

 

Part B1: Fill 2

Guitar 1

e|-------0----2-----------|--/10-10-10-10-pu-9-9--|

b|--7----3----2-----------|-----------------------|

g|--7----4----3^3-3-3-3---|-----------------------|

d|--7----4----4---------4-|-----------------------|

a|--5----2----4-----------|-----------------------|

E|------------2-----------|-----------------------|

 

Part B2:

Guitar 2

e|-----------------------2----------|-----------------------|

b|-----------------------2----------|-------------------11--|

g|--7--9/11--11--11-4\3--3^4-4-pu-3-|--7--9/11--11--11--11--|

d|--7---------9----------4----------|--7---------9----------|

a|--5---------9----------4----------|--5---------9----------|

E|-----------------------2----------|-----------------------|

 

Part C: Variation of F#

 

e|--0----2----0----3----2----|--2-----------2--|

b|--0----2----0----3----2----|--2-----------2--|

g|--1-^--3----1----4----3----|--3-----------3--|

d|--2^---4----2----5----4----|--4-----------4--|

a|--2^---4----2----5----4----|--4-----4-----4--|

E|--0^---2----0----3----2----|--2-0-2---2-2-2--|

 

Part D:

Fill 4

e|----5----3----2--|---------|

b|----5----3----2--|---------|

g|----6----4----3--|---------|

d|----7----5----4--|--4------|

a|----7----5----4--|----4----|

E|----5----3----2--|------2--|

 

Part E:

e|----------------------------|

b|----------------------------|

g|----------------------------|

d|--4-2-4-4-2-4-2-2--5-5-5----|

a|--4-2-4-4-2-4-2-2--5-5-5----|

E|--2-0-2-2-0-2-0-0--3-3-3-0--|

 

Part A x1 w/fill 1

Part B1 and B2 x2 w/fill 2

Part B1 (w/guitar 1 and 2) x4

Part C x1

Part B1 (w/guitar 1 and 2) x3 w/fill 2

Part D x2

Part C x2 w/variation

Part E w/ distortion x3

Part A w/ distortion x1

Part B1 (w/guitar 1 and 2) x2

Part D x2 w/fill 4

Part C w/ distortion(leave on for rest of song) x2

Part E x2 w/ no G on second time

Part C x1

Part E x4

end on G

 

 

Return to my to my Bush tabs page

The Tablature is Copyright its respective owners.

Sign Up For My Newsletter
Subscribe | Unsubscribe

Site Map | Disclaimer | Privacy Policy | Media Kit | Submissions/Corrections

Website © 2000-2014 mattsmusicpage.com. All rights reserved.

Legal & DMCA: Matt's Music Page has been providing lyrics and tabs in a legal way, paying royalties each year to a few organizations. Then, all lyrics and tabs were removed from the site. Now, there's a new owner to the site, which purchased it August 26, 2014, and he is in negotiation to obtain licensing from BMI at the moment. If you have a specific DMCA request -- please do not hesitate to contact me via the contact button on top. I will do my very best to keep this site fully legal.

Get our toolbar!

 

Hard Rock Pin Las Vegas 4th of july red white and blue guitar
$5.0
Hard Rock Pin Las Vegas 4th of july red white and blue guitar picture


Hard Rock Pin Hollywood Fl Bell Girl with dice luggage and guitar
$5.0
Hard Rock Pin Hollywood Fl Bell Girl with dice luggage and guitar picture


Hard Rock Pin Las Vegas King of Clubs Guitar rare only 3 lines of info on back
$5.0
Hard Rock Pin Las Vegas King of Clubs Guitar rare only 3 lines of info on back picture


Hard Rock Pin Edmonton guitar pin
$5.0
Hard Rock Pin Edmonton guitar pin picture


Lladro Guitar Boy #4614 - Beautiful Piece of Lladro
$109.0
Lladro Guitar Boy #4614 - Beautiful Piece of Lladro picture