Your One-Stop Source For
Music Lyrics
Bass and Guitar Tabs
and More...
Music Lyrics Bass and Guitar Tabs

 

The Tabs Are Below

Learn To Read Tab
Chords Handbook
Corrections & Additions
Get Official Tab
Bush tabs @ 911Tabs

Comedown

Bush

 

 

BASS

VERSE:

G |----------------------------------------|

D |----------------------------------------|play a lot of times

A |-----------0------------------4-3-2-0---|

E |---0-2-2-2---2-2-2--0-2-2-2-------------|

 

GUITAR

E |---7-x-0-0-0-0-0---5-x-0-0-0-0-0---2-x-0-0-0-0-0---3-x-0-0-0-0-0---|

B |---7-x-0-0-0-0-0---5-x-0-0-0-0-0---2-x-0-0-0-0-0---3-x-0-0-0-0-0---|

G |---7-x-0-0-0-0-0---5-x-0-0-0-0-0---2-x-0-0-0-0-0---3-x-0-0-0-0-0---|

D |---9-x-9-9-9-9-9---7-x-7-7-7-7-7---4-x-4-4-4-4-4---5-x-5-5-5-5-5---|

A |---9-x-9-9-9-9-9---7-x-7-7-7-7-7---4-x-4-4-4-4-4---5-x-5-5-5-5-5---|

E |---7-x-7-7-7-7-7---5-x-5-5-5-5-5---2-x-2-2-2-2-2---3-x-3-3-3-3-3---|

 

CHORUS:

D |--5--| A |--5--| G |--3--|

|--5--| |--5--| |--3--|

|--7--| |--5--| |--3--|

|--7--| |--7--| |--5--|

|--5--| |--7--| |--5--|

|--5--| |--5--| |--3--|

 

Notations:

h=hammer on note

p=pull off note

v=vibrato

/\=bend (that is a gradual bend, bend up 1/2 step then bring it back down)

/=bend up 1/2 step

 

FILL #1 (it starts at about .13 or .14 seconds into the song)

E |-----------------------------------------------------------------------|

B |--------------------------------/-\------------------------------------|

G |--------------11p9-------------11-11-9v--------------------------------|

D |--7h9-9-x-x-9-------7h9-9-x-x-9----------7h9-9-x-x-9-9-7h9--7h9-9-x-x-9|

A |-----------------------------------------------------------------------|

E |-----------------------------------------------------------------------|

 

E |-----------------------------------------------------------------------|

B |-11-11-9v--7---7-x-x-7---9-7--7h9-9-x-x-9--11v-7---7-x-x-7---9-7--7h9-9|

G |-----------7h9-9-x-x-9---7-7--7---7-x-x-7------7h9-9-x-x-9---7-7--7---7|

D |-----------------------------------------------------------------------|

A |-----------------------------------------------------------------------|

E |-----------------------------------------------------------------------|

 

E |-----------------------------------------------------------------------|

B |-x-x-9-7---7-x-x-7---9-7--7h9-9-x-x-9-11v--7---7-x-x-7--9-7--7h9-9-x-x-|

G |-x-x-7-7h9-9-x-x-9---7-7--7---7-x-x-7------7h9-9-x-x-9--7-7--7---7-x-x-|

D |-----------------------------------------------------------------------|

A |-----------------------------------------------------------------------|

E |-----------------------------------------------------------------------|

 

FILL #2

E |-----------------------------------------------------------------------|

B |-----------------------------------------------------------------------|

G |--11h12-12-x-x--9p7--11s12-x-x-14p12-12-9---(11-11h12--11-11h12--11----|

D |-----------------------------------------------------------------------|

A |-----------------------------------------------------------------------|

E |-----------------------------------------------------------------------|

 

E |-----------------------------------------------------------------------|

B |-----------------------------------------------------------------------|

G |--11h12--11 11h12)--12s14-16-14-12--9--11s12-12-14--12-11--9-9--11s12--|

D |-----------------------------------------------------------------------|

A |-----------------------------------------------------------------------|

E |-----------------------------------------------------------------------|

 

E |--------------------|

B |--------------------|

G |--12-14-12-11--7-7--|

D |--------------------|

A |--------------------|

E |--------------------|

 

 

--------------------------------------------------------------------------------

Comedown

Bush

 

(BASS RIFF)

Riff 1 (Twice) :

------0-------0------0----------

--------0------0------0------0--

--6-6-----4-4-----2-2----3-3--3-

--6-6-----4-4-----2-2----4-4----

--4-4-----2-2-----0-0----4-4----

-------------------------2-2----

 

VERSE 1:

Love and hate / Get it wrong

She cut me right back down to size

Sleep the day / Let it fade

Who was there to take your place?

 

RIFF 1

 

Know one knows / Never will

Mostly me / But mostly you

What do you say / Do you do

When it all comes down?

 

CHORUS (2x):

------------------------------------------------------------------------

------------------------------------------------------------------------

------------------------------------------------------------------------

--9----7----1-------9----7----3----4------------------------------------

--9----7----1-------9----7----3----4------------------------------------

--7----5----3-------7----5----1----2------------------------------------

'Cause I don't want to come back down from this cloud

It's taken me all this time to find out what I need

I don't want to come back down from this cloud

It's taken me all this, all this time

 

RIFF 1

 

VERSE 2:

There is no blame / Only shame

When you beg you just complain

More I come / More I try

All police are paranoid

So am I / So's your future

So are you / Be a creature

What do you say? / What do you do?

When it all comes down

 

CHORUS

 

Love and hate / Get it wrong

She cut me right back down to size

Sleep the day / Let it fade

Who was there to take your place?

 

RIFF 1 (starts here, finishes up the verse):

 

No one knows, never will

Mostly me but mostly you

Do you say, do you do

When it all comes down

 

CHORUS

 

 

Return to my to my Bush tabs page

The Tablature is Copyright its respective owners.

Sign Up For My Newsletter
Subscribe | Unsubscribe

Site Map | Disclaimer | Privacy Policy | Media Kit | Submissions/Corrections

Website © 2000-2014 mattsmusicpage.com. All rights reserved.

Legal & DMCA: Matt's Music Page has been providing lyrics and tabs in a legal way, paying royalties each year to a few organizations. Then, all lyrics and tabs were removed from the site. Now, there's a new owner to the site, which purchased it August 26, 2014, and he is in negotiation to obtain licensing from BMI at the moment. If you have a specific DMCA request -- please do not hesitate to contact me via the contact button on top. I will do my very best to keep this site fully legal.

Get our toolbar!

 

1983 SEALED LP Return of the Jedi + 1977 Star Wars Vinyl 2 Record Set - Sci-Fi
$22.5
1983 SEALED LP Return of the Jedi + 1977 Star Wars Vinyl 2 Record Set - Sci-Fi picture


Frank Sinatra - Swingin Lovers & Sept of My Years (Reprise)[LP-Vinyl] RECORDS
$10.0
Frank Sinatra - Swingin Lovers & Sept of My Years (Reprise)[LP-Vinyl] RECORDS picture


Ion Audio Turntable & Vinyl Record Archiver with USB Connector TTUSB10 - EUC
$59.99
Ion Audio Turntable & Vinyl Record Archiver with USB Connector TTUSB10 - EUC picture


Vintage 1975 LP Big Rig Truckers LP Put the Hammer Down - Vinyl Record
$15.99
Vintage 1975 LP Big Rig Truckers LP Put the Hammer Down - Vinyl Record picture


1970`s Sanrio HELLO KITTY Vinyl Record STICKERS Vintage VERY RARE
$0.99
1970`s Sanrio HELLO KITTY Vinyl Record STICKERS Vintage VERY RARE picture