Your One-Stop Source For
Music Lyrics
Bass and Guitar Tabs
and More...
Music Lyrics Bass and Guitar Tabs

 

The Tabs Are Below

Learn To Read Tab
Chords Handbook
Corrections & Additions
Get Official Tab
Bush tabs @ 911Tabs

the chemicals between us - guitar

 

intro/verse:

B5 D5

 

B5 D#5 D5

 

short little lead riff played during intro:

 

E-----------|

B-----------|

G--9^1/4-8--|

D-----------|

A-----------|

E-----------|

 

chorus:

 

A5 C5 G5 D5

 

 

bride/interlude, whatever you wanna call it

 

E--5---5---5----------------------------3---3---------5----5---|

B----------------------0----0-----3-----------------5----------|

G-------------------0-----0---0--------------------------------|

D----7---7----7----------------------5----5---5--/7-----7----7-|

A-----------------3--------------------------------------------|

E--------------------------------------------------------------|

 

after that just play around with the rhythm of this this and go back to the verse

E--------------------|

B--------------------|

G-16-x-x--16--x--16--|

D-16-x-x--16--x--16--|

A-14-x-x--14--x--14--|

E--------------------|

 

 

*englishfire1@aol.com

 

Return to my to my Bush tabs page

The Tablature is Copyright its respective owners.

Sign Up For My Newsletter
Subscribe | Unsubscribe

Site Map | Disclaimer | Privacy Policy | Media Kit | Submissions/Corrections

Website © 2000-2014 mattsmusicpage.com. All rights reserved.

Legal & DMCA: Matt's Music Page has been providing lyrics and tabs in a legal way, paying royalties each year to a few organizations. Then, all lyrics and tabs were removed from the site. Now, there's a new owner to the site, which purchased it August 26, 2014, and he is in negotiation to obtain licensing from BMI at the moment. If you have a specific DMCA request -- please do not hesitate to contact me via the contact button on top. I will do my very best to keep this site fully legal.

Get our toolbar!