Your One-Stop Source For
Music Lyrics
Bass and Guitar Tabs
and More...
Music Lyrics Bass and Guitar Tabs

 

The Tabs Are Below

Learn To Read Tab
Chords Handbook
Corrections & Additions
Get Official Tab
Bush tabs @ 911Tabs

 

testosterone - bass

 

main riff

G----------------------------------------------------|

D----------------------------------------------------|

A--3--5--8--8--3h5-5----0--1-------------------------|

E----------------------------------------------------|

 

"I am a whore..." play repeatedly

G----------------------------------------------------|

D----------------------------------------------------|

A------3h5-5-5---------------------------------------|

E----------------------------------------------------|

 

"i'm real full of it..."

G------2---2----------------------------------------|

D---------------------------------------------------|

A---------------3---0-------------------------------|

E-------------------------1-------------------------|

 

 

*englishfire1@aol.com

http://howlingmoons.cjb.net

 

Return to my to my Bush bass tabs page

The Tablature is Copyright its respective owners.

Sign Up For My Newsletter
Subscribe | Unsubscribe

Site Map | Disclaimer | Privacy Policy | Media Kit | Submissions/Corrections

Website © 2000-2014 mattsmusicpage.com. All rights reserved.

Get our toolbar!