Your One-Stop Source For
Music Lyrics
Bass and Guitar Tabs
and More...
Music Lyrics Bass and Guitar Tabs

 

The Tabs Are Below

Learn To Read Tab
Chords Handbook
Corrections & Additions
Get Official Tab
Bush tabs @ 911Tabs

 

swallowed - bass

 

No bass 1st verse

 

Chorus:

"Swallowed..."

G ------------------------------------------------------------------------|

D ------------------------------------------------------------------------|

A ----------------------3-3-3-3-3-3-3-3-4-4-4-4-4-4-4-4-1-1-1-1-1-1-1-1---|

E 4-4-4-4-4-4-4-4---------------------------------------------------------|

 

"I'm with everyone..."

G --------------------------------------|

D --------------------------------------|

A ----------------------3-3-3-3-3-3-3-3-|

E 4-4-4-4-4-4-4-4-----------------------|

 

G -----------------------------------|

D -----------------------------------|

A -------4-4-4--3-3-3--8-8-8---------|

E 4-4-4------------------------------|

 

G-------------|

D-------------|

A 4---\1------|

E-------------|

 

outro

G------------------------|

D------------------------|

A------------------------|

E 4-4-4--4-4-4--4-4-4--|

 

just keep repeating until song fades out.

 

*englishfire1@aol.com

http://howlingmoons.cjb.net

 

 

Return to my to my Bush bass tabs page

The Tablature is Copyright its respective owners.

Sign Up For My Newsletter
Subscribe | Unsubscribe

Site Map | Disclaimer | Privacy Policy | Media Kit | Submissions/Corrections

Website © 2000-2014 mattsmusicpage.com. All rights reserved.

Legal & DMCA: Matt's Music Page has been providing lyrics and tabs in a legal way, paying royalties each year to a few organizations. Then, all lyrics and tabs were removed from the site. Now, there's a new owner to the site, which purchased it August 26, 2014, and he is in negotiation to obtain licensing from BMI at the moment. If you have a specific DMCA request -- please do not hesitate to contact me via the contact button on top. I will do my very best to keep this site fully legal.

Get our toolbar!