Your One-Stop Source For
Music Lyrics
Bass and Guitar Tabs
and More...
Music Lyrics Bass and Guitar Tabs

 

The Tabs Are Below

Learn To Read Tab
Chords Handbook
Corrections & Additions
Get Official Tab
Bush tabs @ 911Tabs

 

straight no chaser - bass

 

intro/verse:

G----------------------------------------------------|

D----------------------------------------------------|

A---------------2/4-4-4-4----------------------------|

E---0-0-0-0------------------------------------------|

 

Chorus - repeat then go to next riff ("war on all sides", etc.)

G----------------------------------------------------|

D----------------------------------------------------|

A---0-0-0-0-0-0--2-2-2-2-2-/-5-5-5-5-5---------------|

E----------------------------------------------------|

 

G----------------------------------------------------|

D----------------------------------------------------|

A-----2-2-2-2-2-/-5-5-5-5-5--------------------------|

E----------------------------------------------------|

 

Strings solo:

G---------------------------------------------------|

D---------------------------------------------------|

A------------------2-2-2-2-2-2----------------------|

E--0-0-0-0-0-0--------------------------------------|

 

*englishfire1@aol.com

http://howlingmoons.cjb.net

 

Return to my to my Bush bass tabs page

The Tablature is Copyright its respective owners.

Sign Up For My Newsletter
Subscribe | Unsubscribe

Site Map | Disclaimer | Privacy Policy | Media Kit | Submissions/Corrections

Website © 2000-2014 mattsmusicpage.com. All rights reserved.

Legal & DMCA: Matt's Music Page has been providing lyrics and tabs in a legal way, paying royalties each year to a few organizations. Then, all lyrics and tabs were removed from the site. Now, there's a new owner to the site, which purchased it August 26, 2014, and he is in negotiation to obtain licensing from BMI at the moment. If you have a specific DMCA request -- please do not hesitate to contact me via the contact button on top. I will do my very best to keep this site fully legal.

Get our toolbar!