Your One-Stop Source For
Music Lyrics
Bass and Guitar Tabs
and More...
>Music Lyrics Bass and Guitar Tabs

 

The Tabs Are Below

Learn To Read Tab
Chords Handbook
Corrections & Additions
Get Official Tab
Bush tabs @ 911Tabs

 

spacetravel - bass

 

intro:

 

G----------------------------|

D----------------------------|

A----------------------------|

E-7-7-7-7-7-7-7-7-7-7-7-7-7--|

 

 

verse:

 

G----------------------------|

D----------------------------|

A------------------/8-8-8-8-8|

E--7-7-7-7-7-7-7-7-----------|

 

G----------------------------|

D----------------------------|

A----------------------------|

E---7-7-7-7-8-8-8-8-8-8-8-8--|

 

 

chorus:

 

G----------------------------|

D----------------------------|

A----------------------------|

E-8-8-/-10-10-10-10----------|

 

G----------------------------|

D----------------------------|

A--8-7-8----7-7-3------------|

E----------------------------|

 

G----------------------------|

D----------------------------|

A----------------------------|

E---5-------3----------------|

 

retun to verse

 

 

bridge:

 

G----------------------------|

D----------------------------|

A---8-7-8-8-7-8-8-7-8-8-7-8--|

E----------------------------|

 

 

 

outro:

 

G----------------------------|

D----------------------------|

A----------------------------|

E--7-7-7---/-3-3-3-----------|

 

G----------------------------|

D----------------------------|

A----------------------------|

E--5-5-5-5-3-3-3-3-3---------|

 

G----------------------------|

D----------------------------|

A--8-7-8--8/3--3-3-----------|

E------------------5-3-3-3---|

 

G----------------------------|

D----------------------------|

A----------------------------|

E-5-3-5-/-7-3-3-3-3--5-5-5-5-|

 

G----------------------------|

D----------------------------|

A----------------------------|

E--5/8-8-8-8-8-8-------------|

 

G----------------------------|

D----------------------------|

A--8-7-8--8/3--3-3-----------|

E------------------5-3-3-3---|

 

G----------------------------|

D----------------------------|

A--8-7-8--8/3--3-3---------8-|

E------------------5-3-3-3---|

 

*englishfire1@aol.com

http://howlingmoons.cjb.net

 

Return to my to my Bush bass tabs page

The Tablature is Copyright its respective owners.

Sign Up For My Newsletter
Subscribe | Unsubscribe

Site Map | Disclaimer | Privacy Policy | Media Kit | Submissions/Corrections

Website © 2000-2014 mattsmusicpage.com. All rights reserved.

Legal & DMCA: Matt's Music Page has been providing lyrics and tabs in a legal way, paying royalties each year to a few organizations. Then, all lyrics and tabs were removed from the site. Now, there's a new owner to the site, which purchased it August 26, 2014, and he is in negotiation to obtain licensing from BMI at the moment. If you have a specific DMCA request -- please do not hesitate to contact me via the contact button on top. I will do my very best to keep this site fully legal.

Get our toolbar!

 

OLD LARGE HISTORIC PHOTO OF THE LYRIC THEATRE, SYDNEY c1930s, WAR LOANS BOOTH
$5.0
OLD LARGE HISTORIC PHOTO OF THE LYRIC THEATRE, SYDNEY c1930s, WAR LOANS BOOTH picture


VTG.ORIGINAL 1913/RE.1940 SHEET MUSIC/LYRICS "IF I HAD MY WAY"BING CROSBY(P.COV)
$4.99
VTG.ORIGINAL 1913/RE.1940 SHEET MUSIC/LYRICS


VINTAGE ORIGINAL 1932 MUSIC & LYRICS IN A SHANTY IN OLD SHANTY TOWN PLASTIC COV.
$4.99
VINTAGE ORIGINAL 1932 MUSIC & LYRICS IN A SHANTY IN OLD SHANTY TOWN PLASTIC COV. picture


OLD LARGE HISTORIC PHOTO OF THE LYRIC THEATRE, SYDNEY c1930s, WAR BONDS BOOTH
$5.0
OLD LARGE HISTORIC PHOTO OF THE LYRIC THEATRE, SYDNEY c1930s, WAR BONDS BOOTH picture


VINTAGE RAWLEIGH'S GLASS BOTTLE, AND SMALL LYRIC BOTTLE
$4.99
VINTAGE RAWLEIGH'S GLASS BOTTLE, AND SMALL LYRIC BOTTLE picture