Your One-Stop Source For
Music Lyrics
Bass and Guitar Tabs
and More...
>Music Lyrics Bass and Guitar Tabs

 

The Tabs Are Below

Learn To Read Tab
Chords Handbook
Corrections & Additions
Get Official Tab
Bush tabs @ 911Tabs

 

Prizefighter - bass

 

intro/verse1:

 

G-----------------------------------------------------------|

D-----------------------------------------------------------|

A-----------------------------------------------------------|

E-9-9-9-9-9-9-9-9-9-9-9-9-9--6-6-6-6-6-6-6-6-6-6-6-6-6-6-6--|

 

verse2:

 

G-------------------------------------|

D-------------------------------------|

A------8--6--6------------------------|

E---1-----------0--4-4-4-4-4-4--------|

 

chorus:

 

G-----------------------------------------|

D-----------------------------------------|

A-----------------------------------------|

E---1--4--1--4--4--1--1-/-7--7--7---------|

 

*englishfire1@aol.com

http://howlingmoons.cjb.net

 

Return to my to my Bush bass tabs page

The Tablature is Copyright its respective owners.

Sign Up For My Newsletter
Subscribe | Unsubscribe

Site Map | Disclaimer | Privacy Policy | Media Kit | Submissions/Corrections

Website © 2000-2014 mattsmusicpage.com. All rights reserved.

Legal & DMCA: Matt's Music Page has been providing lyrics and tabs in a legal way, paying royalties each year to a few organizations. Then, all lyrics and tabs were removed from the site. Now, there's a new owner to the site, which purchased it August 26, 2014, and he is in negotiation to obtain licensing from BMI at the moment. If you have a specific DMCA request -- please do not hesitate to contact me via the contact button on top. I will do my very best to keep this site fully legal.

Get our toolbar!

 

London Popular 2-Minute Phonograph Cylinder Record #402 International Jig -Banjo
$49.99
London Popular 2-Minute Phonograph Cylinder Record #402 International Jig -Banjo picture


Disney WDW Polynesian Resort Donald Playing Banjo & Hula Dancing Mickey Pin 2003
$29.99
Disney WDW Polynesian Resort Donald Playing Banjo & Hula Dancing Mickey Pin 2003 picture


Knowles Norman Rockwell The Banjo Player Collectors Plate LTD EDIT Mint Box COA
$5.99
Knowles Norman Rockwell The Banjo Player Collectors Plate LTD EDIT Mint Box COA  picture


seth thomas banjo clock vintage 1950's serviced keeps good time
$59.99
seth thomas banjo clock vintage 1950's serviced keeps good time picture


Rare Antique 8 Day Jewel Daneker Banjo Wall Clock Wood/Brass Orig Key Dome Glass
$59.0
Rare Antique 8 Day Jewel Daneker Banjo Wall Clock Wood/Brass Orig Key Dome Glass picture