Your One-Stop Source For
Music Lyrics
Bass and Guitar Tabs
and More...
Music Lyrics Bass and Guitar Tabs

 

The Tabs Are Below

Learn To Read Tab
Chords Handbook
Corrections & Additions
Get Official Tab
Bush tabs @ 911Tabs

 

personal holloway - bass

 

chorus

G----------------------------------------------------|

D----------------------------------------------------|

A----------------------------------------------------|

E-----2--2--2--7--7--5--5-x--7-7-7-------------------|

 

a personal holloway....surburban suicide....watching night come amber - all those parts

G----------------------------------------------------|

D----------------------------------------------------|

A-----7-5-7-5-7-5--5-5-5--2-2-2----------------------|

E----------------------------------------------------|

 

this is played once i think right before gavin sings "a personal holloway" and then it goes again into the above riff

G----------------------------------------------------|

D----------------------------------------------------|

A----------------------------------------------------|

E-----7-5-7-5-7-5-7-5-7-5-7-5-7-5-7-5----------------|

 

this is played once during the middle near end of the song

G----------------------------------------------------|

D----------------------------------------------------|

A------7-7---------5-5--3-3-3------------------------|

E-----------8-8--------------------------------------|

 

*englishfire1@aol.com

http://howlingmoons.cjb.net

 

 

Return to my to my Bush bass tabs page

The Tablature is Copyright its respective owners.

Sign Up For My Newsletter
Subscribe | Unsubscribe

Site Map | Disclaimer | Privacy Policy | Media Kit | Submissions/Corrections

Website © 2000-2014 mattsmusicpage.com. All rights reserved.

Legal & DMCA: Matt's Music Page has been providing lyrics and tabs in a legal way, paying royalties each year to a few organizations. Then, all lyrics and tabs were removed from the site. Now, there's a new owner to the site, which purchased it August 26, 2014, and he is in negotiation to obtain licensing from BMI at the moment. If you have a specific DMCA request -- please do not hesitate to contact me via the contact button on top. I will do my very best to keep this site fully legal.

Get our toolbar!