Your One-Stop Source For
Music Lyrics
Bass and Guitar Tabs
and More...
Music Lyrics Bass and Guitar Tabs

 

The Tabs Are Below

Learn To Read Tab
Chords Handbook
Corrections & Additions
Get Official Tab
Bush tabs @ 911Tabs

Here's bush's bonedriven for you... just follow it in order

 

Intro:

E-------------------------------------------------------------------------------

B------0---0-------------------------------------------------------------------

G-------------------------------------------------------------------------------

D----2---2---------------------------------------------------------------------

A--0---3-----2/7-7-7-7-5/9------------------------------------------------

E--------------------------------------------------------------------------------

play 3x

the next time is a little different play this only once

 

Last part of intro:

E-------------------------------------------------------------------------------

B------0-----------------------------------------------------------------------

G-------------------------------------------------------------------------------

D----2-------------------------------------------------------------------------

A--0---3-2--------------------------------------------------------------------

E-------------------------------------------------------------------------------

 

Fill 1:

where just a wish away....

E-------------------------------------------------------------------------------

B------0---0-------------------------------------------------------------------

G-----------------2------2--------------------------------------------------------

D----2---2----0-----0------------------------------------------------------------

A--0---3-----------------------------------------------------

E--------------------------------------------------------------------------------

play that up until say you will

 

FIll 2

Say you will

E-------------------------------------------------------------------------------

B----3/5-1--------------------------------------------------------------------

G-------------------------------------------------------------------------------

D-------------------------------------------------------------------------------

A-------------------------------------------------------------------------------

E--------------------------------------------------------------------------------

play that four times till you get to bonedriven

chorus:

E-------------------------------------------------------------------------------

B-------------------------------------------------------------------------------

G-------------------------------------------------------------------------------

D----5--5--5---2-----5-5-5---2-------3------0-----------------------------

A----5--5--5---2-----5-5-5---2-------5------0-----------------------------

E--------------------------------------------------------------------------------

 

Repeat Fill 1

4x

 

Repeat Fill 2

4x

 

Break:

E-------------------------------------------------------------------------------

B-------------------------------------------------------------------------------

G-------5--5--5--4--4--4---------------------------------------------------------

D-------5--5--5--4--4--4---------------------------------------------------------

A-------4--4--4--2--2--2--------------------------------------------------------

E-------------------------------------------------------------------------------

Repeat 2wice

 

Repeat chorus 2wice

 

After chorus:

I was wrong and i will wait...

E-------------------------------------------------------------------------------

B-------------------------------------------------------------------------------

G-----7---7----7--------9----9---9------------------------------------------

D-----7---7----7--------9----9---9------------------------------------------

A-----5---5----5--------7----7---7------------------------------------------

E--------------------------------------------------------------------------------

 

Repeat intro

 

Repeat Fill 1

 

Repeat Chorus 2wice

 

those little riffs at the end are

 

E-------------------------------------------------------------------------------

B-------------------------------------------------------------------------------

G-------------------------------------------------------------------------------

D-----2-------------5----------------------------------------------------------

A-----2-------------5-----------------------------------------------------------

E--------------------------------------------------------------------------------

 

 

Return to my to my Bush tabs page

The Tablature is Copyright its respective owners.

Sign Up For My Newsletter
Subscribe | Unsubscribe

Site Map | Disclaimer | Privacy Policy | Media Kit | Submissions/Corrections

Website © 2000-2014 mattsmusicpage.com. All rights reserved.

Legal & DMCA: Matt's Music Page has been providing lyrics and tabs in a legal way, paying royalties each year to a few organizations. Then, all lyrics and tabs were removed from the site. Now, there's a new owner to the site, which purchased it August 26, 2014, and he is in negotiation to obtain licensing from BMI at the moment. If you have a specific DMCA request -- please do not hesitate to contact me via the contact button on top. I will do my very best to keep this site fully legal.

Get our toolbar!