Your One-Stop Source For
Music Lyrics
Bass and Guitar Tabs
and More...
Music Lyrics Bass and Guitar Tabs

The Tabs Are Below

Learn To Read Tab
Chords Handbook
Corrections & Additions
Get Official Tab
Bush tabs @ 911Tabs

Body

Bush

 

 

Guitar 1 begins playing this

RIFF 1

e----------------------------------------------------------

B----------------------------------------------------------

G----------------------------------------------------------

D-----5h7-7~-----5h7-7~-----5h7-7-5h7-7-7-5h7-7-----5h7-7--

A-5h7--------5h7--------5h7---------------------5h7--------

E----------------------------------------------------------

 

e----------------------------------------------------------

B----------------------------------------------------------

G----------------------------------------------------------

D----------------------------------------------------------

A-5h7-7-5--------------------------------------------------

E---------7------------------------------------------------

 

Then Guitar 2 jumps in playing this

FILL A

e----------------------------------------------------------

B-/8~--/12--10--8-7-8-8~-5---------------------------------

G----------------------------------------------------------

D----------------------------------------------------------

A----------------------------------------------------------

E----------------------------------------------------------

 

FILL B

e----------------------------------------------------------

B-/12/~/8/~/5----------------------------------------------

G----------------------------------------------------------

D----------------------------------------------------------

A----------------------------------------------------------

E----------------------------------------------------------

 

G-A-B-C-D Chord progression.

 

Fill C

e----------------------------------------------------------

B-15b-15--13-15-13--12-13-12-------------------------------

G----------------------------------------------------------

D----------------------------------------------------------

A----------------------------------------------------------

E----------------------------------------------------------

 

 

CHORUS

e----------------------------------------------------------

B----------------------------------------------------------

G-------------------------7--7-7-7-x-x-7-7-7-7-------------

D-4--4-4-4--4-4-4-4-4--4--7--7-7-7-x-x-7-7-7-7-------------

A-4--4-4-4--4-4-4-4-4--4--5--5-5-5-x-x-5-5-5-5-------------

E-2--2-2-2--2-2-2-2-2--2-----------------------------------

 

This fill is played over Riff 1

Fill D [ really fast ]

e----------------------------------------------------------

B-5~-7~-8~-10~-13131313/14141414/15151515/16161616/17171717/

G----------------------------------------------------------

D----------------------------------------------------------

A----------------------------------------------------------

E----------------------------------------------------------

 

e----------------------------------------------------------

B-18b~-----------------------------------------------------

G----------------------------------------------------------

D----------------------------------------------------------

A----------------------------------------------------------

E----------------------------------------------------------

 

Riff 2

e----------------------------------------------------------

B----------------------------------------------------------

G---------------9--7--7-7-7-x-x-7-7-7--7------------------

D-4-----4---4-4-9--7--7-7-7-x-x-7-7-7--7-------------------

A-4-4-4-4-4-4-4-7--5--5-5-5-x-x-5-5-5--5-------------------

E-2-0-0-2-0-2-2--------------------------------------------

 

Riff 3

e----------------------------------------------------------

B----------------------------------------------------------

G----------------------------------------------------------

D-2-2--2-2-2-2--2-2-2--5-5-x-x-7--7-7-7--------------------

A-2-2--2-2-2-2--2-2-2--5-5-x-x-7--7-7-7--------------------

E-0-0--0-0-0-0--0-0-0--3-3-x-x-5--5-5-5--------------------

 

Riff 4

e----------------------------------------------------------

B----------------------------------------------------------

G----------------------------------------------------------

D-7-7--5-5--2----------------------------------------------

A-7-7--5-5--2----------------------------------------------

E-5-5--3-3--0----------------------------------------------

 

Fill E

e----------------------------------------------------------

B-15b-15-13-15-13-15-17b-17~-------------------------------

G----------------------------------------------------------

D----------------------------------------------------------

A----------------------------------------------------------

E----------------------------------------------------------

 

SOLO

e----------------------------------------------------------

B-6h8-6h8-7~--6p5-6h8-7~--------------55555555-5b--------

G-------------------------33333333-3b----------------------

D----------------------------------------------------------

A----------------------------------------------------------

E----------------------------------------------------------

 

Fill F

e----------------------------------------------------------

B-12~-15~-12~-8~------------------------------------------

G----------------------------------------------------------

D----------------------------------------------------------

A----------------------------------------------------------

E----------------------------------------------------------

 

 

Return to my to my Bush tabs page

The Tablature is Copyright its respective owners.

Sign Up For My Newsletter
Subscribe | Unsubscribe

Site Map | Disclaimer | Privacy Policy | Media Kit | Submissions/Corrections

Website © 2000-2014 mattsmusicpage.com. All rights reserved.

Legal & DMCA: Matt's Music Page has been providing lyrics and tabs in a legal way, paying royalties each year to a few organizations. Then, all lyrics and tabs were removed from the site. Now, there's a new owner to the site, which purchased it August 26, 2014, and he is in negotiation to obtain licensing from BMI at the moment. If you have a specific DMCA request -- please do not hesitate to contact me via the contact button on top. I will do my very best to keep this site fully legal.

Get our toolbar!