Your One-Stop Source For
Music Lyrics
Bass and Guitar Tabs
and More...
>Music Lyrics Bass and Guitar Tabs

 

The Tabs Are Below

Learn To Read Tab
Chords Handbook
Corrections & Additions
Get Official Tab
Bush tabs @ 911Tabs

 

mouth - bass

 

into/verse - this is played during most of the song

G----------------------------------------------------|

D----------------------------------------------------|

A----------------------------------------------------|

E-----0--0--x--3--3--x-2-----------------------------|

 

+approx 1:12 - 1:18 min. into the song and 2:20 i think:

G----------------------------------------------------|

D----------------------------------------------------|

A--------------0-2-----------------------------------|

E---2-0-2-0---------3-2------------------------------|

 

Chorus:

G----------------------------------------------------|

D----------------------------------------------------|

A----------------------------------------------------|

E----0--0--x--3--3--x-2--2--2/5--5--5--5-------------|

 

 

"we've been missing long before..." - repeat several times

G--------------------------------------------------------|

D--------------------------------------------------------|

A--2-2-2-2-2-2-------------------------------------------|

E------------------3-3-3-3-3-3---------------------------|

 

right after that:

G----------------------------------------------------|

D----------------------------------------------------|

A----------------------------------------------------|

E-----0---3-/-2--------------------------------------|

 

Play + again now

 

then play Chorus til end

 

*englishfire1@aol.com

http://howlingmoons.cjb.net

 

 

Return to my to my Bush bass tabs page

The Tablature is Copyright its respective owners.

Sign Up For My Newsletter
Subscribe | Unsubscribe

Site Map | Disclaimer | Privacy Policy | Media Kit | Submissions/Corrections

Website © 2000-2014 mattsmusicpage.com. All rights reserved.

Legal & DMCA: Matt's Music Page has been providing lyrics and tabs in a legal way, paying royalties each year to a few organizations. Then, all lyrics and tabs were removed from the site. Now, there's a new owner to the site, which purchased it August 26, 2014, and he is in negotiation to obtain licensing from BMI at the moment. If you have a specific DMCA request -- please do not hesitate to contact me via the contact button on top. I will do my very best to keep this site fully legal.

Get our toolbar!

 

Vtg RED Faux-Denim Rhinestone Vinyl 45 RPM 7 inch Record Case Carrier Box 1970s
$8.65
Vtg RED Faux-Denim Rhinestone Vinyl 45 RPM 7 inch Record Case Carrier Box 1970s picture


1967 Walt Disney's happiest Song Vinyl Record
$12.0
1967 Walt Disney's happiest Song Vinyl Record picture


Vintage Walt Disney Cinderella Vinyl Record
$2.0
Vintage Walt Disney Cinderella Vinyl Record picture


VINTAGE BILLY JOEL "52nd Street" 1978 Vinyl Records
$29.99
VINTAGE BILLY JOEL


Vintage 1982 Star Wars Empire Strikes Back Vinyl 45 RPM Record Tote Case R2D2
$6.99
Vintage 1982 Star Wars Empire Strikes Back Vinyl 45 RPM Record Tote Case R2D2 picture