Your One-Stop Source For
Music Lyrics
Bass and Guitar Tabs
and More...
Music Lyrics Bass and Guitar Tabs

 

The Tabs Are Below

Learn To Read Tab
Chords Handbook
Corrections & Additions
Get Official Tab
Bush tabs @ 911Tabs

 

history - bass

 

intro (after guitar riff)/verse

G----------------------------------------------------|

D----------------------------------------------------|

A----5-5-5-x-3-3-3-x---------------------------------|

E-------------------------1-1-1-x-5-5-5-x------------|

fill sorta thing after intro:

G---------------------------------------------------|

D---------------------------------------------------|

A---5-5-5-------------------------------------------|

E---------------------------------------------------|

 

Chorus - i think this changes a bit through the song, but i'm sure these are the notes -

and the way to play it one of the times dave does. it's an easy enough rhythm to figure out if you listen

G-------------------------------------------------------|

D-------------------------------------------------------|

A--5--------------2-3-----------------------------------|

E-----5----5-5x--------------------------------------=--|

 

*englishfire1@aol.com

http://howlingmoons.cjb.net

 

 

 

Return to my to my Bush bass tabs page

The Tablature is Copyright its respective owners.

Sign Up For My Newsletter
Subscribe | Unsubscribe

Site Map | Disclaimer | Privacy Policy | Media Kit | Submissions/Corrections

Website © 2000-2014 mattsmusicpage.com. All rights reserved.

Legal & DMCA: Matt's Music Page has been providing lyrics and tabs in a legal way, paying royalties each year to a few organizations. Then, all lyrics and tabs were removed from the site. Now, there's a new owner to the site, which purchased it August 26, 2014, and he is in negotiation to obtain licensing from BMI at the moment. If you have a specific DMCA request -- please do not hesitate to contact me via the contact button on top. I will do my very best to keep this site fully legal.

Get our toolbar!