Your One-Stop Source For
Music Lyrics
Bass and Guitar Tabs
and More...
Music Lyrics Bass and Guitar Tabs

 

The Tabs Are Below

Learn To Read Tab
Chords Handbook
Corrections & Additions
Get Official Tab
Bush tabs @ 911Tabs

 

altered states - bass

 

*this is one of my fav bush bass lines.

it's simple, but it has a very cool groove and it's fun to play.

 

<bass comes in during 2nd repition of guitar riff>

 

verse:

G----------------------------------|

D----------------------------------|

A----------------------------------|

E--5-7-7-5-7-7-5-7-7-5-7-7---------|

 

chorus: <"states...">

G----------------------------------|

D----------------------------------|

A----------------------------------|

E-7---9--3-3-5-5-3-5-5-3-5-5-3-5-5-|

 

bridge/interlude thing:

G----------------------------------|

D----------------------------------|

A----------------------------------|

E-10-12-12-10-12-12-10-12-12--7--5-|

 

this is played for a little bit after the bridge as a replacement for the verse.

you play the first verse 4 times then go to this:

 

G----------------------------------|

D----------------------------------|

A----------------------------------|

E-7-5-7-5-7-5-5-0------------------|

 

G----------------------------------|

D----------------------------------|

A----------------------------------|

E-7-5-7-5-7-5-5-0------------------|

 

G----------------------------------|

D----------------------------------|

A----------------------------------|

E-7-5-7-5-7-5-5-7------------------|

 

G----------------------------------|

D----------------------------------|

A----------------------------------|

E-7-5-7-5-7-5-5-5------------------|

 

G----------------------------------|

D----------------------------------|

A----------------------------------|

E-7-5-7-5-7-5-5-0---5-7-7-7--------|

 

the go to the verse which is followed by the chorus several times until the end.

 

*englishfire1@aol.com

http://howlingmoons.cjb.net

 

 

Return to my to my Bush bass tabs page

The Tablature is Copyright its respective owners.

Sign Up For My Newsletter
Subscribe | Unsubscribe

Site Map | Disclaimer | Privacy Policy | Media Kit | Submissions/Corrections

Website © 2000-2014 mattsmusicpage.com. All rights reserved.

Legal & DMCA: Matt's Music Page has been providing lyrics and tabs in a legal way, paying royalties each year to a few organizations. Then, all lyrics and tabs were removed from the site. Now, there's a new owner to the site, which purchased it August 26, 2014, and he is in negotiation to obtain licensing from BMI at the moment. If you have a specific DMCA request -- please do not hesitate to contact me via the contact button on top. I will do my very best to keep this site fully legal.

Get our toolbar!