Your One-Stop Source For
Music Lyrics
Bass and Guitar Tabs
and More...
>Music Lyrics Bass and Guitar Tabs

 

The Tabs Are Below

Learn To Read Tab
Chords Handbook
Corrections & Additions
Get Official Tab
Bush tabs @ 911Tabs

 

40 Miles From the Sun - bass

 

 

verse riffs:

 

G---------------------------------|

D---------------------------------|

A---------------------------------|

E--0-----0-3-0--------------------|

 

G---------------------------------|

D---------------------------------|

A---5----5-10-5-------------------|

E---------------------------------|

 

 

G---------------------------------|

D---------------------------------|

A--3-10-3-------------------------|

E---------------------------------|

 

outro:

 

G---------------------------------|

D---------------------------------|

A---------------------------------|

E---5-5-5/8-8-8-8/10-10-10/12-----|

 

*englishfire1@aol.com

http://howlingmoons.cjb.net

 

Return to my to my Bush bass tabs page

The Tablature is Copyright its respective owners.

Sign Up For My Newsletter
Subscribe | Unsubscribe

Site Map | Disclaimer | Privacy Policy | Media Kit | Submissions/Corrections

Website © 2000-2014 mattsmusicpage.com. All rights reserved.

Legal & DMCA: Matt's Music Page has been providing lyrics and tabs in a legal way, paying royalties each year to a few organizations. Then, all lyrics and tabs were removed from the site. Now, there's a new owner to the site, which purchased it August 26, 2014, and he is in negotiation to obtain licensing from BMI at the moment. If you have a specific DMCA request -- please do not hesitate to contact me via the contact button on top. I will do my very best to keep this site fully legal.

Get our toolbar!

 

Vintage Peanuts Snoopy Playing Guitar Closionne Jewelry Aviva Pin Mint
$9.95
Vintage Peanuts Snoopy Playing Guitar Closionne Jewelry Aviva Pin Mint  picture


Peanuts Snoopy & Woodstock "Playing Guitar" Westland Mini Water Globe MIB
$14.95
Peanuts Snoopy & Woodstock


PINK CADILLAC CONVERTIBLE KING 1 MARDI GRAS NECKLACE BEAD GUITAR ELVIS A10
$4.5
PINK CADILLAC CONVERTIBLE KING 1 MARDI GRAS NECKLACE BEAD GUITAR ELVIS A10 picture


dressed up lady playing GUITAR making music vintage photo postcard Ca 1910's
$7.0
dressed up lady playing GUITAR making music vintage photo postcard Ca 1910's picture


Edwardian lady with GUITAR making music photo French postcard Ca 1910's
$4.0
Edwardian lady with GUITAR making music photo French postcard Ca 1910's picture