Your One-Stop Source For
Music Lyrics
Bass and Guitar Tabs
and More...
Music Lyrics Bass and Guitar Tabs

 

The Tabs Are Below

Learn To Read Tab
Chords Handbook
Corrections & Additions
Get Official Tab
Bush tabs @ 911Tabs

Alien

Bush

 

 

BASS

G |---------------------------------------------------------|

D |---11-----9----7---9--7--2---4------4-----4-----4---4----|

A |-0-----0-----0---0-------0---0---0-----0-----0----0---0--|

E |---------------------------------------------------------|

 

G |---------------------------------------------------------|

D |---11-----9----7---7---7--9--4----4---4---4--------------|

A |-0-----0-----0---0---0----0--0--0---0---0----------------|

E |---------------------------------------------------------|

 

GUITAR

 

CHORUS

 

A |-----| G |-----| D |-----| B |-----|

|-----| |-----| |-----| |-----|

|-----| |-----| |--7--| |--4--|

|--7--| |--5--| |--7--| |--4--| (the B could be a C-chord)

|--7--| |--5--| |--5--| |--2--|

|--5--| |--3--| |-----| |-----|

 

A-G-D-B progression

 

FILL #1:

E |--------------------------|

B |--------------------------|

G |--------------------------|

D |--9h11--9h11--9h11--9h11--|

A |--------------------------|

E |--------------------------|

 

FILL #2:

E |---------------------------------|

B |-----5-----------5--------5------|

G |-----------7---------7--------7--|

D |--7-----7-----7----7----7---7----|

A |---------------------------------|

E |---------------------------------|

 

FILL #3:

E |------------------------|

B |------------------------|

G |--9--9---7--------------|

D |------------7--7--9h11--|

A |------------------------|

E |------------------------|

 

FILL #4:

* **

E |-------------------|

B |-------------------|

G |--7-7-7-7-7-7-7-7--|

D |-------------------|

A |-------------------|

E |-------------------|

 

 

FILL #5:

E |--------------------------------------------|

B |--/\----------------------------------------|

G |--9---7v---9---7--7--x--x--7/9--9--9--9/11--|

D |---------------------x--x-------------------|

A |---------------5--5--x--x--5/7--7--7--7/9---|

E |--------------------------------------------|

 

 

 

Part B

E |----------------------------------------------------------|

B |----------------------------------------------------------|

G |--5s-----5-----5-----5--5--7--5s-----5-----5-----5--5--7--|

D |--5s-----5--2--5--2--5--5--7--5s-----5--2--5--2--5--5--7--|

A |--3s-----3--2--3--2--3--3--5--3s-----3--2--3--2--3--3--5--|

E |------------0-----0---------------------0-----0-----------|

 

E |--------------------------------------------|

B |--------------------------------------------|

G |--5-5-5-5-----------------------------------|

D |--5-5-5-5-etc......-------------------------|

A |--3-3-3-3-(play the c-chord a lot of times--|

E |--------------------------------------------|

 

SOLO

E |---------------------------------------------------------|

B |---------------------------------------------------------|

G |---------------------------------------------------------|

D |------------------0--2--4--6--7--9--11--14--16--18--19---|

A |----------0--2--4----------------------------------------|

E |-0--2--4-------------------------------------------------|

 

E |----------------------------------------------------------|

B |---------------------------(7--8--10--12--14--15--17--19)-|

G |--7--9--11--14--16--18--19--------------------------------|

D |----------------------------------------------------------|

A |----------------------------------------------------------|

E |----------------------------------------------------------|

 

E |-(7--9--10--12--14--15--17--19)-|

B |--------------------------------|

G |--------------------------------|

D |--------------------------------|

A |--------------------------------|

E |--------------------------------|

 

LYRICS:

 

Well the satelite comes and goes

We give each other all we know

In silence we still walk

By the light of the stereo waltz

And will you rain down

In your cinematic love truck

I want to hold you like nothing's going stop us

She come to take me away

It's all that i needed

I don't breathe another lover

Flicker on the t.v. screen

Everything's more than it seems

The mighty backward fall

Stare at the lights on the wall

I swear to this

She felt like velvet

Second blonde child she meant it

She come to take me away

It's all that i needed

I don't breathe another lover

I'm an alien

You're and alien

It's a beautiful rain

Beautiful rain

Beautiful rain

 

--------------------------------------------------------------------------------

Alien

Bush

 

VERSE 1:

Satellite comes and goes

Give each other all we know

In silence we still talk

By the light of the stereo waltz

Will you rain down

In your cinematic love truck

Gonna hold you like

Nothing's gonna stop us

 

CHORUS:

F# E G F#m

--2---2---2---2-------------------3---3---3---3---2---2---------

--2---2---2---2-------------------3---3---3---3---2---2---------

--3---3---3---3---1---1---1---1---4---4---4---4---2---2---------

--4---4---4---4---2---2---2---2---5---5---5---5---4---4---------

--4---4---4---4---2---2---2---2---5---5---5---5---4---4---------

--2---2---2---2-------------------3---3---3---3---2---2---------

And she come to take me away

She's all that I needed

I don't breathe another lover

Yeah

 

(BASS RIFF)

 

VERSE 2:

Flicker on a TV screen

Everything's more than it seems

Mighty backward fall

Stare at the light on the wall

I swear to this

She felt like velvet

Second blonde child

Like velvet, velvet

 

CHORUS

 

OUTRO

A D/F#

-------------2-------------------

--2----------3-------------------

--2----------2-------------------

--2----------0-------------------

-------------0-------------------

-------------3-------------------

 

I'm an alien

You're an alien

It's a beautiful rain, beautiful rain, beautiful rain

Beautiful

 

 

Return to my to my Bush tabs page

The Tablature is Copyright its respective owners.

Sign Up For My Newsletter
Subscribe | Unsubscribe

Site Map | Disclaimer | Privacy Policy | Media Kit | Submissions/Corrections

Website © 2000-2014 mattsmusicpage.com. All rights reserved.

Legal & DMCA: Matt's Music Page has been providing lyrics and tabs in a legal way, paying royalties each year to a few organizations. Then, all lyrics and tabs were removed from the site. Now, there's a new owner to the site, which purchased it August 26, 2014, and he is in negotiation to obtain licensing from BMI at the moment. If you have a specific DMCA request -- please do not hesitate to contact me via the contact button on top. I will do my very best to keep this site fully legal.

Get our toolbar!

 

BRAND NEW KEY OF C HOHNER MINI HARMONICA HARP KEYRING KEYCHAIN KEY RING CHAIN
$8.21
BRAND NEW KEY OF C HOHNER MINI HARMONICA HARP KEYRING KEYCHAIN KEY RING CHAIN picture


RISING SONS BAND *2X3 FRIDGE MAGNET* VOCALS GUITAR MANDOLIN DOBRO HARMONICA SONG
$3.99
RISING SONS BAND *2X3 FRIDGE MAGNET* VOCALS GUITAR MANDOLIN DOBRO HARMONICA SONG picture


Vtg Christmas Angel Baby Girl W Harmonica Boy W Book SET OF 2 W GOLD WINGS
$125.0
Vtg Christmas Angel Baby Girl W Harmonica Boy W Book SET OF 2 W GOLD WINGS  picture


Beautiful Hand Carved Jewelry Trinket Jewelry Box Harmonica Case Bone And Brass
$14.5
Beautiful Hand Carved Jewelry Trinket Jewelry Box Harmonica Case Bone And Brass picture


BRAND NEW* HOHNER BOB DYLAN SIGNATURE LIMITED EDITION HARMONICA COLLECTORS ITEM
$140.19
BRAND NEW* HOHNER BOB DYLAN SIGNATURE LIMITED EDITION HARMONICA COLLECTORS ITEM picture