Your One-Stop Source For
Music Lyrics
Bass and Guitar Tabs
and More...
Music Lyrics Bass and Guitar Tabs

 

The Tabs Are Below

Learn To Read Tab
Chords Handbook
Corrections & Additions
Get Official Tab
Bush tabs @ 911Tabs

 40 Miles From the Sun - guitar

 

 

 

Em

E--0------------------------------------|

B--0------------------------------------|

G--0-------------0----------------------|

D--2----------------2-------------------|

A--2----------2-------------------------|

E--0---0----0-----------0---------------|

 

 

 

D

E--2------------------------------------------|

B--3------------------------------------------|

G--2---------7-------9------------------------|

D--0---5/(7)---7/(9)--------------------------|

A--0------------------------------------------|

E---------------------------------------------|

 

 

Chords:

 

Em, D, C

 

for a lotta lead stuff the lead stuff, you can improvise in Em pentatonic, but the general ideas are above.

 

 

*englishfire1@aol.com

http://howlingmoons.cjb.net

 

Return to my to my Bush tabs page

The Tablature is Copyright its respective owners.

Sign Up For My Newsletter
Subscribe | Unsubscribe

Site Map | Disclaimer | Privacy Policy | Media Kit | Submissions/Corrections

Website © 2000-2014 mattsmusicpage.com. All rights reserved.

Legal & DMCA: Matt's Music Page has been providing lyrics and tabs in a legal way, paying royalties each year to a few organizations. Then, all lyrics and tabs were removed from the site. Now, there's a new owner to the site, which purchased it August 26, 2014, and he is in negotiation to obtain licensing from BMI at the moment. If you have a specific DMCA request -- please do not hesitate to contact me via the contact button on top. I will do my very best to keep this site fully legal.

Get our toolbar!