Your One-Stop Source For
Music Lyrics
Bass and Guitar Tabs
and More...
Music Lyrics Bass and Guitar Tabs

 

The Tabs Are Below

Learn To Read Tab
Chords Handbook
Corrections & Additions
Get Official Tab
Box Car Racer tabs @ 911Tabs

Song: Watch the world

Band: boxcar racer

Tabbist: Watsmiageagayn

tuning: regular e tuning

ive seen alot of versions for this but i think this the is the right one

 

*there is 2 guitars; toms with low distortion and davids with heavy distortion

(if you dont know who tom and david r then you dont deserve this tab)

 

intro/guitar 1(tom)

e--------------------------------------------------------------------------

b--------------------------------------------------------------------------

g44444\66--44444\66--44444\88844\3\44------------ ------------------------

dxxxxx\xx--xxxxx\xx--xxxxx\xxxxx\x\xx------------x2------------------------

a22222\44--22222\44--22222\66622\1\22------------ ------------------------

E44444\xx--22222\xx--00000\xxxxx-------------------------------------------

 

verse\guitar 1 (clean)

e----------------------------------------------------------------------------

b---------7---------7---------7---------7---------7---------7----------------

g---4-4-------4-4-------4-4-------4-4-------4-4-------4-4--------------------

d----------------------------------------------------------------------------

a----------------------------------------------------------------------------

E----------------------------------------------------------------------------

(dont know the # of times u do this but u can figure it out)

 

after verse\guitar2

e--------

b-------- then after this go back to the intro then back to the verse again

g--------

d--------

a-2~~~~~-

E--------

 

chorus\both guitars with distortion

e---------------------------------------------------------------------------

b---------------------------------------------------------------------------

g4444444444-444444-444444--------------------------- ----------------------

d4444444444-444444-444444---------------------------x3----------------------

a2222222222-xxxxxx-xxxxxx--------------------------- ----------------------

E-----------444444-222222---------------------------------------------------

 

interlude\both guitars

e-----------------------------------------------

b-----------------------------------------------

g8888----88--(99999)----------------------------

d8888-66-88--(xxxxx)(this part is clean)--------x2

a6666-66-66--(77777)----------------------------

E-----44----------------------------------------

 

Guitar1 (Clean)

e-----------------------

b0---0----0---0---------

g------6--------6-------

d--4--------4-----------

a-----------------------

E-----------------------

 

guitar2 (clean) these play at the same time

e-----------------------

b777777-777777----------

g444444-555555----------

d-----------------------

a-----------------------

E-----------------------

 

then back to chorus except u do it 6 times instead of 3 then the outro

is the same as the intro. good luck with it!

 

 

Return to my Box Car Racer tabs page

The Tablature is Copyright its respective owners.

Sign Up For My Newsletter
Subscribe | Unsubscribe

Site Map | Disclaimer | Privacy Policy | Media Kit | Submissions/Corrections

Website © 2000-2014 mattsmusicpage.com. All rights reserved.

Legal & DMCA: Matt's Music Page has been providing lyrics and tabs in a legal way, paying royalties each year to a few organizations. Then, all lyrics and tabs were removed from the site. Now, there's a new owner to the site, which purchased it August 26, 2014, and he is in negotiation to obtain licensing from BMI at the moment. If you have a specific DMCA request -- please do not hesitate to contact me via the contact button on top. I will do my very best to keep this site fully legal.

Get our toolbar!

 

VINTAGE SORRENTO MUSIC JEWELRY BOX
$45.0
VINTAGE SORRENTO MUSIC JEWELRY BOX picture


VINTAGE LACQUERED MUSIC BOX JAPAN
$25.99
VINTAGE LACQUERED MUSIC BOX JAPAN picture


Vintage Kehlsteinhaus Bavaria Germany Colorscope Cow Bell View Master Music Box
$8.99
Vintage Kehlsteinhaus Bavaria Germany Colorscope Cow Bell View Master Music Box picture


VINTAGE SCHMIDT Signed Collectible Musical Turning Clown
$9.99
VINTAGE  SCHMIDT Signed Collectible Musical Turning Clown picture


Vintage - Linen - Postcard - Stage - Radio City Music Hall - New York City
$3.75
Vintage - Linen - Postcard - Stage - Radio City Music Hall - New York City   picture