Your One-Stop Source For
Music Lyrics
Bass and Guitar Tabs
and More...
Music Lyrics Bass and Guitar Tabs

 

The Tabs Are Below

Learn To Read Tab
Chords Handbook
Corrections & Additions
Get Official Tab
Bowling For Soup tabs @ 911Tabs

Bowling For Soup - Shes Got a Boyfriend

Tabbed By: ArchedFalcon

Email: ArchedFalcon@aol.com

 

Tuning: Standard (E A D G B E)

 

.. Palm mute

 

 

Intro Played in background

E|------------------------------------------|--------------------------------||

B|------------------------------------------|-14----14-12-15-14-12-----------||

G|22222-77777-44444-777-999---2 times--2----|----14--------------------------||

D|22222-77777-44444-777-999------------2----|--------------------------------||

A|00000-55555-22222-555-777------------0----|--------------------------------||

E|------------------------------------------|--------------------------------||

 

Verse

E|---------------------------------------------------------------------------||

B|---------------------------------------------------------------------------||

G|-guitar silence-then--22222-77777-44444-777-999-22222-77777--4-------------||

D|----------------------22222-77777-44444-777-999-22222-77777--4-------------||

A|----------------------00000-55555-22222-555-777-00000-55555--2-------------||

E|---------------------------------------------------------------------------||

 

Chorus

E|------------------------------------------||

B|------------------------------------------||

G|22222-44444-77777-99999-------------------||

D|22222-44444-77777-99999-------------------||

A|00000-22222-55555-77777-------------------||

E|------------------------------------------||

 

solo

E|---------------------------------------------------------------------------||

B|9--10-----7--5--5--7--5--3--2--5--3--2--0--9--10-----7--5--5--7--5--3--2---||

G|-------9------------------------------------------9------------------------||

D|---------------------------------------------------------------------------||

A|---------------------------------------------------------------------------||

E|---------------------------------------------------------------------------||

 

Bridge

E|---------------------------------------------------------------------------||

B|---------------------------------------------------------------------------||

G|999--------------222222---999--------------222222-999999-------------------||

D|999---12 times---222222---999---12 times---222222-999999-------------------||

A|777--------------000000---777--------------000000-777777-------------------||

E|---------------------------------------------------------------------------||

.. ..

 

 

There ya go! Have fun!

ArchedFalcon

 

 

Return to my Bowling For Soup tabs page

The Tablature is Copyright its respective owners.

Sign Up For My Newsletter
Subscribe | Unsubscribe

Site Map | Disclaimer | Privacy Policy | Media Kit | Submissions/Corrections

Website © 2000-2014 mattsmusicpage.com. All rights reserved.

Legal & DMCA: Matt's Music Page has been providing lyrics and tabs in a legal way, paying royalties each year to a few organizations. Then, all lyrics and tabs were removed from the site. Now, there's a new owner to the site, which purchased it August 26, 2014, and he is in negotiation to obtain licensing from BMI at the moment. If you have a specific DMCA request -- please do not hesitate to contact me via the contact button on top. I will do my very best to keep this site fully legal.

Get our toolbar!

 

Starbucks You Are Here Coffee Mug/Cup KENTUCKY - Horses, Banjo, Blue, White
$19.99
Starbucks You Are Here Coffee Mug/Cup KENTUCKY - Horses, Banjo, Blue, White picture


KNOWLES ROCKWELL HERITAGE "THE BANJO PLAYER" FIRST EDITION 1989 PLATE COA
$5.99
KNOWLES ROCKWELL HERITAGE


Vintage Postcard 1981 Disney World Banjo Kings Main Street USA 1981 Postmark
$4.99
 Vintage Postcard 1981 Disney World Banjo Kings Main Street USA 1981 Postmark picture


Banjo Barometer With Thermometer Hygrometer 490mm
$84.76
Banjo Barometer With Thermometer Hygrometer 490mm picture


ANTIQUE JAPANESE NIPPON FIGURINE SET OF 3 WOMEN GEISHA PLAYING DRUM BANJO FAN
$24.0
ANTIQUE JAPANESE NIPPON FIGURINE SET OF 3 WOMEN GEISHA PLAYING DRUM BANJO FAN picture