Your One-Stop Source For
Music Lyrics
Bass and Guitar Tabs
and More...
Music Lyrics Bass and Guitar Tabs

 

The Tabs Are Below

Learn To Read Tab
Chords Handbook
Corrections & Additions
Get Official Tab
Bowling For Soup tabs @ 911Tabs

Bowling For Soup - I Ran

Tabbed By: Craig Pinson

 

Tuning: Standard (E A D G B E)

 

I saw this song wasnt tabbed here so i did the best i could. Theres alot of

effects and echos and ***, but here it is....

 

 

Intro/Verse/Chorus

E|---------------------------------------------------------------------------||

B|---------------------------------------------------------------------------||

G|---------------------------------------------------------------------------||

D|-7-7-7-7-7-7-7-7-7-7-7-7-7-7-7-7--------7-7-7-7-7-7-7-7-7-7-7-7-7-7-7-7----||

A|-7-7-7-7-7-7-7-7-7-7-7-7-7-7-7-7--------7-7-7-7-7-7-7-7-7-7-7-7-7-7-7-7----||

E|-5-5-5-5-5-5-5-5-5-5-5-5-5-5-5-5--------5-5-5-5-5-5-5-5-5-5-5-5-5-5-5-5----||

(mute all) I walked along the avenue

 

E|----------------------------------------------------------------------------||

B|----------------------------------------------------------------------------||

G|----------------------------------------------------------------------------||

D|-7-7-7-7-7-7-7-7-7-7-7-7-7-7-7-7--------5-5-5-5-5-5-5-5-5-5-5-5-5-5-5-5-----||

A|-7-7-7-7-7-7-7-7-7-7-7-7-7-7-7-7--------5-5-5-5-5-5-5-5-5-5-5-5-5-5-5-5-----||

E|-5-5-5-5-5-5-5-5-5-5-5-5-5-5-5-5--------3-3-3-3-3-3-3-3-3-3-3-3-3-3-3-3-----||

I'd never thought I'd meet a girl like you meet a girl like you

 

(These parts are played throughout song so figure out where)

Guitar 2

E|----------------------------------------------------------------||

B|--555-3-5~--------------------555-3-5~--------------------------||

G|----------------------------------------------------------------||

D|----------------------------------------------------------------||

A|----------------------------------------------------------------||

E|----------------------------------------------------------------||

 

E|--5------------------5------------------3-----------------3-----||

B|--5-echos------------5-echos------------3-echos-----------3echos||

G|----------------------------------------------------------------||

D|----------------------------------------------------------------||

A|----------------------------------------------------------------||

E|----------------------------------------------------------------||

 

 

E|---------------------------------------------------------------------------||

B|---------------------------------------------------------------------------||

G|---------------------------------------------------------------------------||

D|-7-7-7-7-7-7-7-7-7-7-7-7-7-7-7-7--------7-7-7-7-7-7-7-7-7-7-7-7-7-7-7-7----||

A|-7-7-7-7-7-7-7-7-7-7-7-7-7-7-7-7--------7-7-7-7-7-7-7-7-7-7-7-7-7-7-7-7----||

E|-5-5-5-5-5-5-5-5-5-5-5-5-5-5-5-5--------5-5-5-5-5-5-5-5-5-5-5-5-5-5-5-5----||

With auburn hair and tawny eyes The kind of eyes that

 

E|----------------------------------------------------------------------------||

B|----------------------------------------------------------------------------||

G|----------------------------------------------------------------------------||

D|-7-7-7-7-7-7-7-7-7-7-7-7-7-7-7-7--------5-5-5-5-5-5-5-5-5-5-5-5-5-5-5-5-----||

A|-7-7-7-7-7-7-7-7-7-7-7-7-7-7-7-7--------5-5-5-5-5-5-5-5-5-5-5-5-5-5-5-5-----||

E|-5-5-5-5-5-5-5-5-5-5-5-5-5-5-5-5--------3-3-3-3-3-3-3-3-3-3-3-3-3-3-3-3-----||

hypnotize me through; hypnotize me through

 

E|---------------------------------------------------------------------------||

B|---------------------------------------------------------------------------||

G|---------------------------------------------------------------------------||

D|--3-3-3-3-3-3-3-3-3-3/5-5-5-5-5-5-5-5-5------------------------------------||

A|--3-3-3-3-3-3-3-3-3-3/5-5-5-5-5-5-5-5-5------------------------------------||

E|--1-1-1-1-1-1-1-1-1-1/3-3-3-3-3-3-3-3-3------------------------------------||

And I ran, ran so far away. Couldn't get away.

 

Then play the verse and chours again

 

Pre solo mute thing

E|----------------------------------------------------------------||

B|----------------------------------------------------------------||

G|-*5-------------------------------------------------------------||

D|-*5-------------------------------------------------------------||

A|-*3-------------------------------------------------------------||

E|----------------------------------------------------------------||

 

Solo

Guitar 1

E|----------------------------------------------------------------||

B|--13-15-17-15-13-15-17-15-13-15-17-15-13-15-17-15---------------||

G|----------------------------------------------------------------||

D|----------------------------------------------------------------||

A|----------------------------------------------------------------||

E|----------------------------------------------------------------||

 

Guitar2

E|----------------------------------------------------------------||

B|--10~--------8~--------10~-------12bend-----10~-----------------||

G|----------------------------------------------------------------||

D|----------------------------------------------------------------||

A|----------------------------------------------------------------||

E|----------------------------------------------------------------||

 

Guitar1

E|----------------------------------------------------------------||

B|--13~---13-15-17-15-13-10~-----13~---13-15-17-15-13-10~---------||

G|----------------------------------------------------------------||

D|----------------------------------------------------------------||

A|----------------------------------------------------------------||

E|----------------------------------------------------------------||

 

Guitar 2

E|------------------17<----17<----17<----17<----------------------||

B|--13--15--17--15------------------------------------------------||

G|----------------------------------------------------------------||

D|----------------------------------------------------------------||

A|----------------------------------------------------------------||

E|----------------------------------------------------------------||

 

This is as close as its gonna get, and it sounds pretty good

 

Return to my Bowling For Soup tabs page

The Tablature is Copyright its respective owners.

Sign Up For My Newsletter
Subscribe | Unsubscribe

Site Map | Disclaimer | Privacy Policy | Media Kit | Submissions/Corrections

Website © 2000-2014 mattsmusicpage.com. All rights reserved.

Legal & DMCA: Matt's Music Page has been providing lyrics and tabs in a legal way, paying royalties each year to a few organizations. Then, all lyrics and tabs were removed from the site. Now, there's a new owner to the site, which purchased it August 26, 2014, and he is in negotiation to obtain licensing from BMI at the moment. If you have a specific DMCA request -- please do not hesitate to contact me via the contact button on top. I will do my very best to keep this site fully legal.

Get our toolbar!