Your One-Stop Source For
Music Lyrics
Bass and Guitar Tabs
and More...
>Music Lyrics Bass and Guitar Tabs

 

The Bowling For Soup Guitar Tabs Are Below

Learn To Read Tab
Chords Handbook
Corrections & Additions
Get Official Tab
Bowling For Soup tabs @ 911Tabs

Intro

 

Guitar 1

e|------------------------------------------------|

B|------------------------------------------------|

G|--44444---------44444---------------------------|

D|--44444--22222--44444--44444-(X5)---------------|

A|--22222--22222--22222--44444--------------------|

E|---------00000---------22222--------------------|

Guitar 2

e|------------------------------------------------|

B|------------------------------------------------|

G|--44444--99999--44444---------------------------|

D|--44444--xxxxx--44444--44444-(X2)---------------|

A|--22222--77777--22222--44444--------------------|

E|-----------------------22222--------------------|

 

e|------------------------------------------------|

B|------------------------------------------------|

G|--44444---------44444---------------------------|

D|--44444--22222--44444--44444-(X2)---------------|

A|--22222--22222--22222--44444--------------------|

E|---------00000---------22222--------------------|

 

e-------------------------------------------------------|

B-------------------------------------------------------|

G-11-13-11-9-8-9-11-13-11-6------11-13-11-9-8-6-4-3-1---|

D-----------------------------------------------------4-|

A-------------------------------------------------------|

E-------------------------------------------------------|

 

 

 

 

 

 

e----------------------------------------------|

B----------------------------------------------|

G--44---44-------------------------------------|

D--44---4422--44-(x4)--------------------------|

A--22---2222--44-------------------------------|

E---------00--22-------------------------------|

 

e-------------------------------------------------------------------------------|

B-------------------------------------------------------------------------------|

G--8-9-11-----8-9-8-9-8-----8-9-11----8-9-8-9-8-9-11--------(x2)----------------|

D---------9--------------9----------9-------------------------------------------|

A-------------------------------------------------------------------------------|

E-------------------------------------------------------------------------------|

 

 

 

e-------------------------------------------------------------|

B-------------------------------------------------------------|

G--444444444--------------------------------------------------|

D--444444444-444444444444-222222222222-444444444444-----------|

A--222222222-444444444444-222222222222-444444444444-----------|

E------------222222222222-000000000000-222222222222-----------|

 

e--------------------------------------------------------------|

B--------------------------------------------------------------|

G--444444444---------------------------------------------------|

D--444444444-444444444444-2222222222222222222222222--------4-2-|

A--222222222-444444444444-2222222222222222222222222--------4-2-|

E------------222222222222-0000000000000000000000000--------2-0-|

 

 

 

 

e-------------------------------------------------------------------------------|

B-------------------------------------------------------------------------------|

G--8-9-11-----8-9-8-9-8-----8-9-11----8-9-8-9-8-9-11----------------------------|

D---------9--------------9----------9-------------------------------------------|

A-------------------------------------------------------------------------------|

E-------------------------------------------------------------------------------|

 

e------------------------------------------------------------------------------|

B------------------------------------------------------------------------------|

G-8-8---8—-11-13-11-13-11-8----8-8--8--11-13-11-13-11-13—16/6------------------|

D-----9---------------------------9--------------------------------------------|

A------------------------------------------------------------------------------|

E------------------------------------------------------------------------------|

 

 

 

 

 

e-------------------------------------------------------------------------------|

B-------------------------------------------------------------------------------|

G-----13-15----------------------------------------9-10-------------------------|

D-13--------11----11-13-11-9----9-11-13-14-------8------6---6-8-4---------------|

A-------------------------------------------------------------------------------|

E-------------------------------------------------------------------------------|

 

 

e-------------------------------------------------------------------------------|

B-7-5-7-5-----------------------------------------------------------------------|

G---------8-8-8-6-6-6-4---------------------------------------------------------|

D-------------------------------------------------------------------------------|

A-------------------------------------------------------------------------------|

E-------------------------------------------------------------------------------|

 

 

e|---------------------------------------------------------------|

B|---------------------------------------------------------------|

G|-44444-------------------------44444---------------------------|

D|-44444--44444--22222-----------44444--44444--22222-------------|

A|-22222--44444--22222-----------22222--44444--22222-------------|

E|--------22222--00000--0-2-4-5---------22222--00000--0-2-4-5----|

Return to my Bowling For Soup Guitar Tabs page

The Bowling For Soup Guitar Tablature is Copyright its respective owners.

Sign Up For My Newsletter
Subscribe | Unsubscribe

Site Map | Disclaimer | Privacy Policy | Media Kit | Submissions/Corrections

Website © 2000-2014 mattsmusicpage.com. All rights reserved.

Legal & DMCA: Matt's Music Page has been providing lyrics and tabs in a legal way, paying royalties each year to a few organizations. Then, all lyrics and tabs were removed from the site. Now, there's a new owner to the site, which purchased it August 26, 2014, and he is in negotiation to obtain licensing from BMI at the moment. If you have a specific DMCA request -- please do not hesitate to contact me via the contact button on top. I will do my very best to keep this site fully legal.

Get our toolbar!

 

DRUM KIT Petrol Lighter in Pouch Free UK Post Drummer Music Musical Instrument
$19.58
DRUM KIT Petrol Lighter in Pouch Free UK Post  Drummer Music Musical Instrument picture


7 Vintage Photos /Gymnastics Ballet Drum Bicycle Bike Car Auto/Young Girl MO
$6.99
7 Vintage Photos /Gymnastics Ballet Drum Bicycle Bike Car Auto/Young Girl MO picture


1920s Era Antique Little Girl & a Drum Set Valentine Card, Mechanical
$2.25
1920s Era Antique Little Girl & a Drum Set Valentine Card, Mechanical picture


GERMAN WWII postcard unused, SS CAV DRUM & BUGLE CORPS, see picture, no reserve
$6.0
GERMAN WWII postcard unused, SS CAV DRUM & BUGLE CORPS, see picture, no reserve picture


INDIAN WOOD/Raw Hide DRUM & MALLET (Wrigley's Gum Wrapper Promo 1928est)
$19.99
INDIAN WOOD/Raw Hide DRUM & MALLET (Wrigley's Gum Wrapper Promo 1928est) picture