Your One-Stop Source For
Music Lyrics
Bass and Guitar Tabs
and More...
Music Lyrics Bass and Guitar Tabs

 

The Tabs Are Below

Learn To Read Tab
Chords Handbook
Corrections & Additions
Get Official Tab
Bowling For Soup tabs @ 911Tabs

Song title: Everything

Artist: Bowling for Soup

Album: Tell me When to Whoa

 

Verse

She was everything And I didn’t even notice when she changed her hair

e|-------------------|------------------------------------------------------|

B|-------------------|------------------------------------------------------|

G|-------------------|---------7------------9-------------------------------|

D|----------------9--|---------7------------9-----------------7-------------|

A|----------------9--|---------5------------7-----------------7-------------|

E|----------------7--|----------------------------------------5-------------|

When she talked about her day y’know I didn’t care

E|----------------------------------------------------------|

B|----------------------------------------------------------|

G|-------------7--------------9-----------------------------|

D|-------------7--------------9-------------7---------------|

A|-------------5--------------7-------------7---------------|

E|------------------------------------------5---------------|

She was everything

E|--------------------|

B|--------------------|

G|--------------------|

D|-----------------9--|

A|-----------------9--|

E|-----------------7--|

 

 

(Chorus)

 

a-and | she set a time bomb to go off when she had gone

E|---------------------------------------------------|

B|---------------------------------------------------|

G|---7----------9------------------------------------|

D|---7----------9--------------7--------6--------4---|

A|---5----------7--------------7--------6--------4---|

E|-----------------------------5--------4--------2---|

When it all came down I had nowhere to run

E|---------------------------------------------|

B|---------------------------------------------|

G|---7------9----------------------------------|

D|---7------9---------------7------6-------4---|

A|---5------7---------------7------6-------4---|

E|--------------------------5------4-------2---|

And as she slammed the door I swear I heard her say

E|-----------------------------------------------------|

B|-----------------------------------------------------|

G|--7----------9---------------------------9--------7--|

D|--7----------9------------------7--------9--------7--|

A|--5----------7------------------7--------7--------5--|

E|--------------------------------5--------------------|

“Now you can rock and roll all night and sleep all day”

E|-------------------------------------------------------|

B|-------------------------------------------------------|

G|----------------------------------9--------------------|

D|----------------9-----------------9------------------7-|

A|----------------9-----------------7------------------7-|

E|----------------7------------------------------------5-|

Yeah yeah yer yeah yer

E|---------------------------|

B|---------------------------|

G|---7----------9------------|

D|---7----------9-------7----|

A|---5----------7-------7----|

E|----------------------5----|

 

Order:

Verse x 2

Chorus

Verse

Chorus

 

Lyrics

 

(Verse 1)

She was everything

And I didn’t even notice when she changed her hair

When she talked about her day, y’know I didn’t care

She was everything

(Verse 2)

I’ll tell you what she said

“you can take your broken promises and hit the door”

She told me that she couldn’t take it anymore

And that’s all she said a-and

(Chorus)

She set a time bomb to go off when she had gone

And when it all came down I had nowhere to run

And as she slammed the door I swear I heard her say

“now you can rock and roll all night and sleep all day”

Yeah yeah yer yeah yer

(Verse 3)

She was everything

And I didn’t think I’d notice if she wasn’t there

When she told me we were through I said I didn’t care

I lost every thing a-and

(chorus)

She set a time bomb to go off when she had gone

And when it all came down I had nowhere to run

And as she slammed the door I swear I heard her say

“now you can rock and roll all night and sleep all day”

Yeah yeah yer yeah yer

“Now you can rock and roll all night and sleep all day”

Yeah yeah yer yeah yer

 

 

Return to my Bowling For Soup tabs page

The Tablature is Copyright its respective owners.

Sign Up For My Newsletter
Subscribe | Unsubscribe

Site Map | Disclaimer | Privacy Policy | Media Kit | Submissions/Corrections

Website © 2000-2014 mattsmusicpage.com. All rights reserved.

Legal & DMCA: Matt's Music Page has been providing lyrics and tabs in a legal way, paying royalties each year to a few organizations. Then, all lyrics and tabs were removed from the site. Now, there's a new owner to the site, which purchased it August 26, 2014, and he is in negotiation to obtain licensing from BMI at the moment. If you have a specific DMCA request -- please do not hesitate to contact me via the contact button on top. I will do my very best to keep this site fully legal.

Get our toolbar!