Your One-Stop Source For
Music Lyrics
Bass and Guitar Tabs
and More...
>Music Lyrics Bass and Guitar Tabs

 

The Tabs Are Below

Learn To Read Tab
Chords Handbook
Corrections & Additions
Get Official Tab
Bowling For Soup tabs @ 911Tabs

Artist: Bowling For Soup

Album: Drunk Enough To Dance

Song: Surf Colorado

Tabbed By: Adam Seaborne (adam.seaborne@ntlworld.com)

Standard Tuning - EADG

 

A brief key:

~ - Let Ring

m - Mute strings

 

Intro:

 

A B

G|---------------------------|

D|---------------------------|

A|-0-0-0-0-0-0-0-0-2-2-2-2-2-|

E|---------------------------|

 

E A C#

G|-----------------------------------------------------------------|

D|-----------------------------------------------------------------|

A|-7-7-7-7-7-7-7-7-0-0-0-0-0-0-0-0-4-4-4-4-4-4-4-4-4-4-4-4-4-4-4-4-|

E|-----------------------------------------------------------------|

 

D B

G|-----------------------------------------------------------------|

D|-----------------------------------------------------------------|

A|-5-5-5-5-5-5-5-5-5-5-5-5-5-5-5-5-2-2-2-2-2-2-2-2-2-2-2-2-2-2-2-2-|

E|-----------------------------------------------------------------|

 

Verse:

 

E A

G|---------------------------------|

D|---------------------------------|

A|-7-7-7-7-7-7-7-7-0-0-0-0-0-0-0-0-|

E|---------------------------------| x3

 

C# B

G|---------------------------------|

D|---------------------------------|

A|-4-4-4-4-4-4-4-4-2-2-2-2-2-2-2-2-|

E|---------------------------------|

 

Pre-Chorus:

 

A B E

G|--------------------|

D|--------------------|

A|-0~~---2~~---7~~~---|

E|--------------------| x2 (Could be an open E here instead of A-7)

 

A B

G|---------------------------|

D|---------------------------|

A|-0-0-0-0-0-0-0-0-2-2-2-2-2-|

E|---------------------------|

 

Chorus:

 

E A C#

G|-----------------------------------------------------------------|

D|-----------------------------------------------------------------|

A|-7-7-7-7-7-7-7-7-0-0-0-0-0-0-0-0-4-4-4-4-4-4-4-4-4-4-4-4-4-4-4-4-|

E|-----------------------------------------------------------------|

 

D B

G|-----------------------------------------------------------------|

D|-----------------------------------------------------------------|

A|-5-5-5-5-5-5-5-5-5-5-5-5-5-5-5-5-2-2-2-2-2-2-2-2-2-2-2-2-2-2-2-2-|

E|-----------------------------------------------------------------|

 

Bridge 1:

(Remember the first time...)

 

E A

G|-------------------------------|

D|-------------------------------|

A|-7-7-7m--rest--0-0-0-0-0-0-0-0-|

E|-------------------------------| x2

 

E A F# B

G|-----------------------------------------------------------------|

D|-----------------------------------------------------------------|

A|-7-7-7-7-7-7-7-7-0-0-0-0-0-0-0-0-----------------2-2-2-2-2-2-2-2-|

E|---------------------------------2-2-2-2-2-2-2-2-----------------|

 

Bridge 2:

 

E A F# B

G|---------------------------------------------------------|

D|---------------------------------------------------------|

A|-7-7-7m--rest--0-0-0--rest---------------2-2-2-2-2-2-2-2-|

E|----------------------------2-2-2--rest------------------|

 

Outro

 

E A

G|---------------------------------|

D|---------------------------------|

A|-7-7-7-7-7-7-7-7-0-0-0-0-0-0-0-0-|

E|---------------------------------| x3

 

E A

G|------------------------------|

D|------------------------------|

A|-7-7-7-7-7-7-7-7-0-0-0-0-0-0m-|

E|------------------------------|

 

 

That's pretty much it. I know for sure this is nowhere near 100% correct because I can hear different bass riffs in the song.

I created this from the guitar chords, but I play it with my band and it sounds allright. Please leave corrections - ratings are pointless =)

 

 

Play Order:

 

Intro

Verse x2

Pre-Chorus

Chorus x2

Verse x2

Pre-Chorus

Chorus x2

Bridge 1 x2

Bridge 2 x1

Chorus x2

Outro

 

Any comments about it, email me.

 

 

Return to my Bowling For Soup bass tabs page

The Tablature is Copyright its respective owners.

Sign Up For My Newsletter
Subscribe | Unsubscribe

Site Map | Disclaimer | Privacy Policy | Media Kit | Submissions/Corrections

Website © 2000-2014 mattsmusicpage.com. All rights reserved.

Legal & DMCA: Matt's Music Page has been providing lyrics and tabs in a legal way, paying royalties each year to a few organizations. Then, all lyrics and tabs were removed from the site. Now, there's a new owner to the site, which purchased it August 26, 2014, and he is in negotiation to obtain licensing from BMI at the moment. If you have a specific DMCA request -- please do not hesitate to contact me via the contact button on top. I will do my very best to keep this site fully legal.

Get our toolbar!

 


2024 DISNEYLAND COCO GUITAR POPCORN BUCKET ~ PIXAR FEST ~ PRE ORDER 4/26
$
2024 DISNEYLAND COCO GUITAR POPCORN BUCKET ~ PIXAR FEST ~ PRE ORDER 4/26 picture


Antique Hubley Cast Iron Bookends SERENADE Man & Guitar Woman in Window NICE
$
Antique Hubley Cast Iron Bookends SERENADE Man & Guitar Woman in Window NICE picture


PenDelfin Rocky Rabbit Guitar Sombrero Red Pants Figurine England with Orig Box
$
PenDelfin Rocky Rabbit Guitar Sombrero Red Pants Figurine England with Orig Box picture


Funko Pop Vinyl: One Piece - Brook (w/ Guitar) SHIPPED IN Hard Case Authentic
$
Funko Pop Vinyl: One Piece - Brook (w/ Guitar)  SHIPPED IN Hard Case  Authentic picture


Hard Rock Cafe Minneapolis Mug Guitar Handle Ceramic Restaurant Souvenir Cup
$
Hard Rock Cafe Minneapolis Mug Guitar Handle Ceramic Restaurant Souvenir Cup picture


Barack Obama ~ Signed Autographed Guitar Pickguard Cover ~ PSA DNA
$
Barack Obama ~ Signed Autographed Guitar Pickguard Cover ~ PSA DNA picture


Vtg Figurine Norleans Japan Old Man Donkey Girl Guitar 7.5" X 8"Make Best Offer
$
Vtg Figurine Norleans Japan Old Man Donkey Girl Guitar 7.5


1969 BUCK OWENS Guitar Method Course Promo Print Ad
$
1969 BUCK OWENS Guitar Method Course Promo Print Ad picture


Disney Pixarfest Coco Guitar Popcorn Bucket NEW 2024 PRE-ORDER 4/26 🙌
$
Disney Pixarfest Coco Guitar Popcorn Bucket NEW 2024 PRE-ORDER 4/26 🙌 picture


Miniature Acoustic Six String Guitar in Guitar Case w/Stand
$
Miniature Acoustic Six String Guitar in Guitar Case w/Stand picture