Your One-Stop Source For
Music Lyrics
Bass and Guitar Tabs
and More...
Music Lyrics Bass and Guitar Tabs

 

The Tabs Are Below

Learn To Read Tab
Chords Handbook
Corrections & Additions
Get Official Tab
Bowling For Soup tabs @ 911Tabs

Bowling For Soup

Omaha Nebraska

Bowling For Soup Goes To The Movies

* - palm mute

/ = slide

 

Intro- guitar 1 (guitar 2 is the chords written , eg A,D,E,)

A D E A

E-------------------------------------------------------------------

B-------------------------------------------------------------------

G-----9-9-7-7-9-9-----6-6-7-7-9-9--9-9-7-7-6-6----7-7-6-6-----------

D-7-7-------------9-9--------------------------9-9--------9-9-7-7---

A-------------------------------------------------------------------

E-------------------------------------------------------------------

 

Verse- some body pinched me..

 

E-----------------------------------------------------------------------------

B-----------------------------------------------------------------------------

G------------------7-7-7-7-7-7-7-7---------9--7-7-7-7-7---------9--7-7-7-7-7--

D-7-7-7-7-7-7-7-7--7-7-7-7-7-7-7-7--7-7-7--9--7-7-7-7-7--7-7-7--9--7-7-7-7-7--

A-7-7-7-7-7-7-7-7--5-5-5-5-5-5-5-5--7-7-7--7--5-5-5-5-5--7-7-7--7--5-5-5-5-5--

E-5-5-5-5-5-5-5-5-------------------5-5-5----------------5-5-5---------------- x 2

 

* * * * * * * * * * * * * * * *

 

Pre-chorus

 

E-----------------------------

B------------------3-3-3-3-3--

G-5-5-5-5-5-5-5-5--5-5-5-5-5--

D-5-5-5-5-5-5-5-5--5-5-5-5-5--

A-3-3-3-3-3-3-3-3--3-3-3-3-3--

E-----------------------------

* * * * * * * *

 

Chorus

 

E----------------------------------------------------- -------------------------------------------

B----------------------------------------------------- -------------------------------------------

G----------7-7-7-7-7-7-7-7-----------7-7-7-7-7-7-7-7-- ----------7-7-7-7-7-7-7-7-7-7-7-7-7-7-7-7--

D-7-7-7-7--7-7-7-7-7-7-7-7--7-7-7-7--7-7-7-7-7-7-7-7-- -7-7-7-7--7-7-7-7-7-7-7-7-7-7-7-7-7-7-7-7--

A-7-7-7-7--5-5-5-5-5-5-5-5--7-7-7-7--5-5-5-5-5-5-5-5-- -7-7-7-7--5-5-5-5-5-5-5-5-5-5-5-5-5-5-5-5--

E-5-5-5-5-------------------5-5-5-5------------------- X 2 -5-5-5-5-----------------------------------

 

 

Intro- guitar 1 (guitar 2 is the chords written , eg A,D,E,)

A D E A

E-------------------------------------------------------------------

B-------------------------------------------------------------------

G-----9-9-7-7-9-9-----6-6-7-7-9-9--9-9-7-7-6-6----7-7-6-6-----------

D-7-7-------------9-9--------------------------9-9--------9-9-7-7---

A-------------------------------------------------------------------

E-------------------------------------------------------------------

 

Verse- some body pinched me..

 

E-----------------------------------------------------------------------------

B-----------------------------------------------------------------------------

G------------------7-7-7-7-7-7-7-7---------9--7-7-7-7-7---------9--7-7-7-7-7--

D-7-7-7-7-7-7-7-7--7-7-7-7-7-7-7-7--7-7-7--9--7-7-7-7-7--7-7-7--9--7-7-7-7-7--

A-7-7-7-7-7-7-7-7--5-5-5-5-5-5-5-5--7-7-7--7--5-5-5-5-5--7-7-7--7--5-5-5-5-5--

E-5-5-5-5-5-5-5-5-------------------5-5-5----------------5-5-5----------------

 

 

E-----------------------------------------------------------------------------

B-----------------------------------------------------------------------------

G------------------7-7-7-7-7-7-7-7---------9--7-7-7-7-7---------9--7-7-7-7-7--

D-7-7-7-7-7-7-7-7--7-7-7-7-7-7-7-7--7-7-7--9--7-7-7-7-7--7-7-7--9--7-7-7-7-7--

A-7-7-7-7-7-7-7-7--5-5-5-5-5-5-5-5--7-7-7--7--5-5-5-5-5--7-7-7--7--5-5-5-5-5--

E-5-5-5-5-5-5-5-5-------------------5-5-5----------------5-5-5----------------

 

* * * * * * * * * * * * * * * *

 

 

Pre-chorus

 

E-----------------------------

B------------------3-3-3-3-3--

G-5-5-5-5-5-5-5-5--5-5-5-5-5--

D-5-5-5-5-5-5-5-5--5-5-5-5-5--

A-3-3-3-3-3-3-3-3--3-3-3-3-3--

E-----------------------------

* * * * * * * *

 

Chorus

 

E----------------------------------------------------- -------------------------------------------

B----------------------------------------------------- -------------------------------------------

G----------7-7-7-7-7-7-7-7-----------7-7-7-7-7-7-7-7-- ----------7-7-7-7-7-7-7-7-7-7-7-7-7-7-7-7--

D-7-7-7-7--7-7-7-7-7-7-7-7--7-7-7-7--7-7-7-7-7-7-7-7-- -7-7-7-7--7-7-7-7-7-7-7-7-7-7-7-7-7-7-7-7--

A-7-7-7-7--5-5-5-5-5-5-5-5--7-7-7-7--5-5-5-5-5-5-5-5-- -7-7-7-7--5-5-5-5-5-5-5-5-5-5-5-5-5-5-5-5--

E-5-5-5-5-------------------5-5-5-5------------------- X 3 -5-5-5-5-----------------------------------

 

 

End of chorus

 

E------------------------------

B------------------------------

G-9-9-9-9-9-9-9-9-9-9-9-9-9-9--

D-9-9-9-9-9-9-9-9-9-9-9-9-9-9--

A-7-7-7-7-7-7-7-7-7-7-7-7-7-7--

E------------------------------

 

 

Solo - guitar 1

(slighty differnet tempo hear)

E-------------------------------- -------------------------------------------------------------------

B-------------------------------- -------------------------------------------------------------------

G-9-9-11-9----------------------- -9-9-9/11/9-------------------------9-9-9/11/9---------------------

D----------9-11-12-12-12-11-9---- ------------9-11-12-12-12-11-9-----------------9-11-12-12-12-11-9--

A-----------------------------12- --------------------------------12---------------------------------

E-------------------------------- x2 -------------------------------------------------------------------

 

guitar 2

 

E-----------------------------------------------------

B-----------------------------------------------------

G--------------9-9-9-9-9-9--7-7-7-7-7-7--9-9-9-9-9-9--

D-7-7-7-7-7-7--9-9-9-9-9-9--7-7-7-7-7-7--9-9-9-9-9-9--

A-7-7-7-7-7-7--7-7-7-7-7-7--5-5-5-5-5-5--7-7-7-7-7-7--

E-5-5-5-5-5-5-----------------------------------------

 

Chord solo

 

 

E-----------------------------------------

B-----------------------------------------

G-7-7-7-7-7--7-7-7-7-7--------------------

D-7-7-7-7-7--7-7-7-7-7--5-5-5-5-5-5-5--7--

A-5-5-5-5-5--5-5-5-5-5--5-5-5-5-5-5-5--7--

E-----------------------3-3-3-3-3-3-3--5--x2

 

chorus- ready or not..

 

E-----------------------------------------------------

B-2--3--2--3--2--3------------------------------------

G-2--2--2--2--2--2------------------------------------

D-2--0--2--0--2--0--5-5-5-5-5-5-5-5--5-5-5-5-5-5-5-5--

A-------------------5-5-5-5-5-5-5-5--5-5-5-5-5-5-5-5--

E-------------------3-3-3-3-3-3-3-3--3-3-3-3-3-3-3-3--

* * * * * * * *

 

 

Chorus

 

E----------------------------------------------------- -------------------------------------------

B----------------------------------------------------- -------------------------------------------

G----------7-7-7-7-7-7-7-7-----------7-7-7-7-7-7-7-7-- ----------7-7-7-7-7-7-7-7-7-7-7-7-7-7-7-7--

D-7-7-7-7--7-7-7-7-7-7-7-7--7-7-7-7--7-7-7-7-7-7-7-7-- -7-7-7-7--7-7-7-7-7-7-7-7-7-7-7-7-7-7-7-7--

A-7-7-7-7--5-5-5-5-5-5-5-5--7-7-7-7--5-5-5-5-5-5-5-5-- -7-7-7-7--5-5-5-5-5-5-5-5-5-5-5-5-5-5-5-5--

E-5-5-5-5-------------------5-5-5-5------------------- X 2 -5-5-5-5-----------------------------------

 

 

E----------------------------------------------------- -------------------------------------------

B----------------------------------------------------- -------------------------------------------

G----------7-7-7-7-7-7-7-7-----------7-7-7-7-7-7-7-7-- ----------7-7-7-7-7-7-7-7-7-7-7-7-7-7-7-7--

D-7-7-7-7--7-7-7-7-7-7-7-7--7-7-7-7--7-7-7-7-7-7-7-7-- -7-7-7-7--7-7-7-7-7-7-7-7-7-7-7-7-7-7-7-7--

A-7-7-7-7--5-5-5-5-5-5-5-5--7-7-7-7--5-5-5-5-5-5-5-5-- -7-7-7-7--5-5-5-5-5-5-5-5-5-5-5-5-5-5-5-5--

E-5-5-5-5-------------------5-5-5-5------------------- X 3 -5-5-5-5-----------------------------------

 

 

E------------------------------

B------------------------------

G-9-9-9-9-9-9-9-9-9-9-9-9-9-9--

D-9-9-9-9-9-9-9-9-9-9-9-9-9-9--

A-7-7-7-7-7-7-7-7-7-7-7-7-7-7--

E------------------------------

 

Last chord

 

E----

B----

G----

D-7--

A-7--

E-5--

 

End. please rate!

 

Return to my Bowling For Soup tabs page

The Tablature is Copyright its respective owners.

Sign Up For My Newsletter
Subscribe | Unsubscribe

Site Map | Disclaimer | Privacy Policy | Media Kit | Submissions/Corrections

Website © 2000-2014 mattsmusicpage.com. All rights reserved.

Legal & DMCA: Matt's Music Page has been providing lyrics and tabs in a legal way, paying royalties each year to a few organizations. Then, all lyrics and tabs were removed from the site. Now, there's a new owner to the site, which purchased it August 26, 2014, and he is in negotiation to obtain licensing from BMI at the moment. If you have a specific DMCA request -- please do not hesitate to contact me via the contact button on top. I will do my very best to keep this site fully legal.

Get our toolbar!

 

Starbucks You Are Here Coffee Mug/Cup KENTUCKY - Horses, Banjo, Blue, White
$19.99
Starbucks You Are Here Coffee Mug/Cup KENTUCKY - Horses, Banjo, Blue, White picture


KNOWLES ROCKWELL HERITAGE "THE BANJO PLAYER" FIRST EDITION 1989 PLATE COA
$5.99
KNOWLES ROCKWELL HERITAGE


Vintage Postcard 1981 Disney World Banjo Kings Main Street USA 1981 Postmark
$4.99
 Vintage Postcard 1981 Disney World Banjo Kings Main Street USA 1981 Postmark picture


Banjo Barometer With Thermometer Hygrometer 490mm
$84.76
Banjo Barometer With Thermometer Hygrometer 490mm picture


ANTIQUE JAPANESE NIPPON FIGURINE SET OF 3 WOMEN GEISHA PLAYING DRUM BANJO FAN
$24.0
ANTIQUE JAPANESE NIPPON FIGURINE SET OF 3 WOMEN GEISHA PLAYING DRUM BANJO FAN picture