Your One-Stop Source For
Music Lyrics
Bass and Guitar Tabs
and More...
Music Lyrics Bass and Guitar Tabs

 

The Tabs Are Below

Learn To Read Tab
Chords Handbook
Corrections & Additions
Get Official Tab
Bowling For Soup tabs @ 911Tabs

Band:Bowling For Soup

Song:Out The Window

Album:Drunk Enough To Dance

 

Tabbed by Kyle Gayne

 

Intro(Bass enters at 0:06)

G:------------------| |------------------|

D:------------------| |------------------|

A:------------------|x1|-----9753---------|x2

E:-77--77--00--22---| |-77------00--22---|

 

Verse 1

G:------------------|

D:------------------|

A:-22--22-----------|x4

E:---------00--22---|

 

Chorus 1

G:------------------|

D:------------------|

A:-22222222---------|x4

E:---------00002222-|

 

Post Chorus

G:------------------|

D:------------------|

A:------------------|x2

E:-77--77--00--22---|

 

Verse 2

G:------------------|

D:------------------|

A:-22--22-----------|x4

E:---------00--22---|

 

Chorus 2

G:------------------|

D:------------------|

A:-22222222---------|x4

E:---------00002222-|

 

Post Chorus

G:------------------|

D:------------------|

A:------------------|x2

E:-77--77--00--22---|

 

Bridge

G:------------------------------------------------------------------|

D:------------------------------------------------------------------|

A:---------------------------------2-2-2-2-2-2-2-2-9-9-7-7-5-5-3-3--|x2

E:-0-0-0-0-0-0-0-0-2-2-2-2-2-2-2-2----------------------------------|

 

G:------------------------------------------------------------------|

D:------------------------------------------------------------------|

A:---------------------------------2-2-2-2-2-2-2-2------------------|x2

E:-0-0-0-0-0-0-0-0-2-2-2-2-2-2-2-2-----------------4-4-4-4-4-4-4-4--|

 

G:----------------------------------| |------------------|

D:----------------------------------| |------------------|

A:----------------------------------|x1|------------------|x2

E:-0-0-0-0-0-0-0-0-2-2-2-2-2-2-2-2--| |-77--77--00--22---|

 

Chorus 3

G:------------------|

D:------------------|

A:-22222222---------|x4

E:---------00002222-|

 

Post Chorus

G:------------------| |-------------------------------------------|

D:------------------| |-------------------------------------------|

A:------------------|x3|-----------------2~~(Stop ringing at 2:57)-|x1

E:-77--77--00--22---| |-77--77--00--22----------------------------|

 

Small Rest

 

Chorus 4

G:------------------| |----------------------|

D:------------------| |----------------------|

A:-22222222---------|x3|-22222222---------2~~-|x1

E:---------00002222-| |---------00002222-----|

 

 

Return to my Bowling For Soup bass tabs page

The Tablature is Copyright its respective owners.

Sign Up For My Newsletter
Subscribe | Unsubscribe

Site Map | Disclaimer | Privacy Policy | Media Kit | Submissions/Corrections

Website © 2000-2014 mattsmusicpage.com. All rights reserved.

Legal & DMCA: Matt's Music Page has been providing lyrics and tabs in a legal way, paying royalties each year to a few organizations. Then, all lyrics and tabs were removed from the site. Now, there's a new owner to the site, which purchased it August 26, 2014, and he is in negotiation to obtain licensing from BMI at the moment. If you have a specific DMCA request -- please do not hesitate to contact me via the contact button on top. I will do my very best to keep this site fully legal.

Get our toolbar!