Your One-Stop Source For
Music Lyrics
Bass and Guitar Tabs
and More...
Music Lyrics Bass and Guitar Tabs

 

The Tabs Are Below

Learn To Read Tab
Chords Handbook
Corrections & Additions
Get Official Tab
Bowling For Soup tabs @ 911Tabs

Artist:Bowling For Soup

Song:I Don't Wanna Rock

Album:Drunk Enough To Dance

 

Tabbed by Kyle Gayne

 

Intro

G:----------------------------------|

D:----------------------------------|

A:---------33333333--------333------|x2

E:-33333333--------33333333----0-2--|

 

Verse 1

G:------------------------------------------------------------------|

D:------------------------------------------------------------------|

A:---------33335555--------33335555--------33335555--------333------|x2

E:-33333333--------33333333--------33333333--------33333333----0-2--|

 

Pre Chorus

G:------------------|

D:------------------|

A:-3333333355555555-|x2

E:------------------|

 

Chorus

G:------------------------------------------|

D:------------------------------------------|

A:-------------------------3~~~----55555555-|x1

E:-333--------------------------------------|

 

G:----------------------------------|

D:----------------------------------|

A:---------33333333--------333------|x2

E:-33333333--------33333333----0-2--|

 

Verse 2

G:------------------------------------------------------------------|

D:------------------------------------------------------------------|

A:---------33335555--------33335555--------33335555--------333------|x1

E:-33333333--------33333333--------33333333--------33333333----0-2--|

 

Pre Chorus

G:------------------|

D:------------------|

A:-3333333355555555-|x2

E:------------------|

 

Chorus

G:------------------------------------------|

D:------------------------------------------|

A:-------------------------3~~~----55555555-|x1

E:-333--------------------------------------|

 

G:------------------| |------------------|

D:------------------| |------------------|

A:---------33333333-|x3|---------333------|x1

E:-33333333---------| |-33333333----0-2--|

 

Bridge

G:------------------|

D:------------------|

A:---------3--33----|x4

E:-3--3---------02--|

 

G:----------------------------------| |----------------------------------|

D:----------------------------------| |----------------------------------|

A:---------2~~~----3~~~-------------|x2|---------2222222233333333---------|x2

E:-0~~~--------------------3~~~-----| |-00000000----------------33333333-|

 

Rest until 2:33

 

G:------------------|

D:------------------|

A:-3333333355555555-|x1

E:------------------|

 

Chorus/Outro

G:------------------| |------------------|

D:------------------| |------------------|

A:---------33333333-|x3|---------333------|x1

E:-33333333---------| |-33333333----0-2--|

 

G:------------------| |--------------------|

D:------------------| |--------------------|

A:---------33333333-|x3|---------333--------|x1

E:-33333333---------| |-33333333----0-2-3~-|

 

 

Return to my Bowling For Soup bass tabs page

The Tablature is Copyright its respective owners.

Sign Up For My Newsletter
Subscribe | Unsubscribe

Site Map | Disclaimer | Privacy Policy | Media Kit | Submissions/Corrections

Website © 2000-2014 mattsmusicpage.com. All rights reserved.

Legal & DMCA: Matt's Music Page has been providing lyrics and tabs in a legal way, paying royalties each year to a few organizations. Then, all lyrics and tabs were removed from the site. Now, there's a new owner to the site, which purchased it August 26, 2014, and he is in negotiation to obtain licensing from BMI at the moment. If you have a specific DMCA request -- please do not hesitate to contact me via the contact button on top. I will do my very best to keep this site fully legal.

Get our toolbar!