Your One-Stop Source For
Music Lyrics
Bass and Guitar Tabs
and More...
Music Lyrics Bass and Guitar Tabs

 

The Tabs Are Below

Learn To Read Tab
Chords Handbook
Corrections & Additions
Get Official Tab
Bowling For Soup tabs @ 911Tabs

I think that this is right but please give me feedback as it is my first ever tab

 

Verse 1

G:------------------------------------------------------------------|

D:------------------------------------------------------------------|

A:---------------4444444444444444----------------5555555555555555-|x1

E:-5555555555555555----------------222222222222222-----------------|

 

Chorus 1

G:----------------------------------| ------------------------------

D:----------------------------------| ------------------------------

A:---------77777777--------55555555-|x3----- - - -----------------|x1

E:-55555555--------77777777---------|?333333555555557777777777777777?

 

G:------------------| |----------------------------------|

D:------------------| |----------------------------------|

A:-----7777----5555-|x3|-----7777--------5555555555555555-|x1

E:-5555----7777-----| |-5555----77777777-----------------|

 

Verse 2

G:------------------------------------------------------------------|

D:------------------------------------------------------------------|

A:-----------------4444444444444444----------------5555555555555555-|x2

E:-5555555555555555----------------2222222222222222-----------------|

 

Chorus 2

G:----------------------------------| |----------------------------------|

D:----------------------------------| |----------------------------------|

A:---------77777777--------55555555-|x3---------------------------|x1

E:-55555555--------77777777------ 33333333555555557777777777777777-|

G:------------------| |--------------------------------------------------|

D:------------------| |--------------------------------------------------|

A:-----7777----5555-|x3|-----7777--------5555555555555555555555555--------|x1

E:-5555----7777-----| |-5555----77777777---------------------------------|

 

Bridge

G:----------------------------------| |----------------------------------|

D:----------------------------------| |----------------------------------|

A:----------------------------------|x1|---------7~~~------------5~~~-----|x2

E:-5~~~-----------------------------| |-5~~~------------7~~~-------------|

 

Rest for vocals solo

 

G:-----------------------------------------|

D:-----------------------------------------|

A:-5~~~(let ring)--------------------------|x1

E:-----------------------------------------|

 

Chorus 3

G:----------------------------------|

D:----------------------------------|

A:---------77777777--------55555555-|x4

E:-55555555--------77777777---------|

 

G:----------------------------------| |---------------|

D:----------------------------------| |---------------|

A:---------7~~~------------5~~~-----|x2|---------------|x1

E:-5~~~------------7~~~-------------| |-5~~~~~~~~~----|

 

 

Return to my Bowling For Soup bass tabs page

The Tablature is Copyright its respective owners.

Sign Up For My Newsletter
Subscribe | Unsubscribe

Site Map | Disclaimer | Privacy Policy | Media Kit | Submissions/Corrections

Website © 2000-2014 mattsmusicpage.com. All rights reserved.

Legal & DMCA: Matt's Music Page has been providing lyrics and tabs in a legal way, paying royalties each year to a few organizations. Then, all lyrics and tabs were removed from the site. Now, there's a new owner to the site, which purchased it August 26, 2014, and he is in negotiation to obtain licensing from BMI at the moment. If you have a specific DMCA request -- please do not hesitate to contact me via the contact button on top. I will do my very best to keep this site fully legal.

Get our toolbar!

 

Starbucks You Are Here Coffee Mug/Cup KENTUCKY - Horses, Banjo, Blue, White
$19.99
Starbucks You Are Here Coffee Mug/Cup KENTUCKY - Horses, Banjo, Blue, White picture


KNOWLES ROCKWELL HERITAGE "THE BANJO PLAYER" FIRST EDITION 1989 PLATE COA
$5.99
KNOWLES ROCKWELL HERITAGE


Vintage Postcard 1981 Disney World Banjo Kings Main Street USA 1981 Postmark
$4.99
 Vintage Postcard 1981 Disney World Banjo Kings Main Street USA 1981 Postmark picture


Banjo Barometer With Thermometer Hygrometer 490mm
$84.76
Banjo Barometer With Thermometer Hygrometer 490mm picture


ANTIQUE JAPANESE NIPPON FIGURINE SET OF 3 WOMEN GEISHA PLAYING DRUM BANJO FAN
$24.0
ANTIQUE JAPANESE NIPPON FIGURINE SET OF 3 WOMEN GEISHA PLAYING DRUM BANJO FAN picture