Your One-Stop Source For
Music Lyrics
Bass and Guitar Tabs
and More...
Music Lyrics Bass and Guitar Tabs

 

The Tabs Are Below

Learn To Read Tab
Chords Handbook
Corrections & Additions
Get Official Tab
Bowling For Soup tabs @ 911Tabs

Band: Bowling For Soup

Song: Dance With You

Type: Bass Tab

 

Intro:

G|-----------------------------------|

D|-----------------------------------|

A|-3-3-3333----------------------1h3-|

E|----------33333335-5-5-3-113355----|

 

Verse 1:

G|----------------------------------|

D|----------------------------------|

A|-------------------------------33-|

E|-555555553333333311111111111111---|

 

G|----------------------------------|

D|----------------------------------|

A|----------------------------------|

E|-55555555333333331111111111111111-|

 

Chorus:

G|-----------------------------------| |----------------------------------|

D|-----------------------------------| |----------------------------------|

A|-33333333----------------------1h3-| |-33333333-------------------------|

E|---------3333333355555555113355----| |---------333333331111111111111111-|

 

G|-----------------------------------| |----------------------------------|

D|-----------------------------------| |----------------------------------|

A|-3-3-3333----------------------1h3-| |-33333333----------------------33-|

E|---------333333335-5-5-3-113355----| |---------3333333311111111111111---|

 

Verse 2:

G|----------------------------------|

D|----------------------------------|

A|-------------------------------33-|

E|-555555553333333311111111111111---|

 

G|----------------------------------|

D|----------------------------------|

A|----------------------------------|

E|-55555555333333331111111111111111-|

 

Chorus:

G|-----------------------------------| |----------------------------------|

D|-----------------------------------| |----------------------------------|

A|-33333333----------------------1h3-| |-33333333-------------------------|

E|---------3333333355555555113355----| |---------333333331111111111111111-|

 

G|-----------------------------------| |----------------------------------|

D|-----------------------------------| |----------------------------------|

A|-3-3-3333----------------------1h3-| |-33333333----------------------33-|

E|---------333333335-5-5-3-113355----| |---------3333333311111111111111---|

 

Bridge:

G|----------------------------------| |----------------------------------|

D|----------------------------------| |----------------------------------|

A|----------------------------------| |-33333333-------------------------|

E|-3~~~----5~~~----1~~~~~~~---------| |---------333333335555555511113333-|

 

G|--------------------------------------|

D|--------------------------------------|

A|-33333333------------------------3~~--|

E|---------33333333555553--11111111-----|

 

Chorus:

G|-----------------------------------| |----------------------------------|

D|-----------------------------------| |----------------------------------|

A|-33333333----------------------1h3-| |-33333333-------------------------|

E|---------3333333355555555113355----| |---------333333331111111111111111-|

 

G|-----------------------------------| |----------------------------------|

D|-----------------------------------| |----------------------------------|

A|-3-3-3333----------------------1h3-| |-33333333-------------------------|

E|---------333333335-5-5-3-113355----| |---------333333331111111111111111-|

 

Outro:

G|----------------------------------| |----------------------------------|

D|----------------------------------| |----------------------------------|

A|----------------------------------| |----------------------------------|

E|-33333333555555551111111111111111-| |-3~~~----5~~~----1~~~~~~~---------|

 

 

Return to my Bowling For Soup bass tabs page

The Tablature is Copyright its respective owners.

Sign Up For My Newsletter
Subscribe | Unsubscribe

Site Map | Disclaimer | Privacy Policy | Media Kit | Submissions/Corrections

Website © 2000-2014 mattsmusicpage.com. All rights reserved.

Legal & DMCA: Matt's Music Page has been providing lyrics and tabs in a legal way, paying royalties each year to a few organizations. Then, all lyrics and tabs were removed from the site. Now, there's a new owner to the site, which purchased it August 26, 2014, and he is in negotiation to obtain licensing from BMI at the moment. If you have a specific DMCA request -- please do not hesitate to contact me via the contact button on top. I will do my very best to keep this site fully legal.

Get our toolbar!

 

® Elvis Presley Figure with Bars & Vinyl Record Stage
$23.99
® Elvis Presley Figure with Bars & Vinyl Record Stage picture


THE LONGINES SYMPHONETTE "SENTIMENTAL JOURNEY" VINTAGE VINYL ALBUM RECORD BOWL
$19.99
 THE LONGINES SYMPHONETTE


African Ghana Medley Vinyl Phono Record Beads (8mm) Ghana
$15.0
African Ghana Medley Vinyl Phono Record Beads (8mm)  Ghana picture


African Yellow Vinyl Phono Record Beads (6mm) Ghana
$12.0
African Yellow Vinyl Phono Record Beads (6mm)  Ghana picture


African Vintage Vinyl Phono Record Beads (7mm - Set of 4) Ghana
$69.0
African Vintage Vinyl Phono Record Beads (7mm - Set of 4)  Ghana picture