Your One-Stop Source For
Music Lyrics
Bass and Guitar Tabs
and More...
Music Lyrics Bass and Guitar Tabs

 

The Tabs Are Below

Learn To Read Tab
Chords Handbook
Corrections & Additions
Get Official Tab
Bowling For Soup tabs @ 911Tabs

Band:Bowling For Soup

Song:Cold Shower Tuesdays

Album:Drunk Enough To Dance

 

Tabbed by Kyle Gayne

 

Intro

G:------------------------------------------------------------------|

D:------------------------------------------------------------------|

A:-55555555--------55555555--------55555555-------------------------|x2

E:---------33333333--------33333333--------333333330-0-00~-5~~~-----|

 

Verse 1

G:--------------------------------------------------|

D:--------------------------------------------------|

A:-5-5-5-5-5-5-5-5-5-5-5-5-5-5-5-5-5-5-5-5-5-5-5-5--|x1

E:--------------------------------------------------|

 

G:----------------------------------|

D:----------------------------------|

A:-------------5555-----------------|x1

E:-333333333333----5555555555555555-|

 

G:----------------------------------------------------------|

D:-------------------------7-5-4----------------------------|

A:-5-5-5-5-5-5-5-5-5-5-5-5-------7-5-5-5-5-5-5-5-5-5-5-5-5--|x1

E:----------------------------------------------------------|

 

G:----------------------------------|

D:----------------------------------|

A:-------------5555-----------------|x1

E:-333333333333----5555555555555555-|

 

Pre Chorus 1

G:----------------------------------------------------------------------------------|

D:----------------------------------------------------------------------------------|

A:----------------------------------------------------------------------------------|x1

E:-3333333333333333555555555555555522222222222222220-0-0-0-0-0-0-0-0-0-0-0-0-0-0-0--|

 

Chorus 1

G:------------------------------------------------------------------|

D:------------------------------------------------------------------|

A:-5555555555555555-------------------------------------------------|x1

E:-----------------777777777777777733333333333333335555555555555555-|

 

G:------------------------------------------------------------------|

D:------------------------------------------------------------------|

A:-5555555555555555-------------------------------------------------|x1

E:-----------------777777777777777733333333333333335----------------|

 

Pre Verse

G:------------------------------------------------------------------|

D:------------------------------------------------------------------|

A:-55555555--------55555555--------55555555-------------------------|x1

E:---------33333333--------33333333--------333333330-0-00~-5~~~-----|

 

Verse 2

G:--------------------------------------------------|

D:--------------------------------------------------|

A:-5-5-5-5-5-5-5-5-5-5-5-5-5-5-5-5-5-5-5-5-5-5-5-5--|x1

E:--------------------------------------------------|

 

G:----------------------------------|

D:----------------------------------|

A:-------------5555-----------------|x1

E:-333333333333----5555555555555555-|

 

G:--------------------------------------------------|

D:-------------------------7-5-4--------------------|

A:-5-5-5-5-5-5-5-5-5-5-5-5-------7-5-5-5-5-5-5-5-5--|x1

E:--------------------------------------------------|

 

G:----------------------------------|

D:----------------------------------|

A:-------------5555-----------------|x1

E:-333333333333----5555555555555555-|

 

Pre Chorus 2

G:----------------------------------------------------------------------------------|

D:----------------------------------------------------------------------------------|

A:-------------------------------------------------------------------------77777777-|x1

E:-3333333333333333555555555555555522222222222222220-0-0-0-0-0-0-0-0-0-0-0----------|

 

Chorus 2

G:------------------------------------------------------------------|

D:------------------------------------------------------------------|

A:-5555555555555555-------------------------------------------------|x1

E:-----------------777777777777777733333333333333335555555555555555-|

 

G:------------------------------------------------------------------|

D:------------------------------------------------------------------|

A:-5555555555555555-------------------------------------------------|x1

E:-----------------777777777777777733333333333333335-----------9-/--|

 

G:------------------------------------------------------------------|

D:------------------------------------------------------------------|

A:-5555555555555555-------------------------------------------------|x1

E:-----------------777777777777777733333333333333335555555555555555-|

 

Bridge

G:------------------------------------------------------------------|

D:------------------------------------------------------------------|

A:---------------------------------5~~~-----------------------------|x1

E:-7~~~----------3~~~------------------------------5~~~-------------|

 

G:---------------------------------|

D:---------------------------------|

A:---------------------------------|x1

E:-7-7-7-7-7-7-7-7-3-3-3-3-3-3-3-3-|

 

G:------------------------------------------------------------------|

D:------------------------------------------------------------------|

A:------------------------------------------------------------------|x1

E:-5-5-5-5-5-5-5-5-5-5-5-5-5-5-5-5-5-5-5-5-5-5-5-5-5-5-5-5-5-5-5-5--|

 

Chorus 3

G:------------------------------------------------------------------|

D:------------------------------------------------------------------|

A:-5555555555555555-------------------------------------------------|x2

E:-----------------777777777777777733333333333333335555555555555555-|

 

G:------------------------------------------------------------------|

D:------------------------------------------------------------------|

A:-5-5-5-5-5-5-5-5--------------------------------------------------|x1

E:-----------------7-7-7-7-7-7-7-7-3-3-3-3-3-3-3-3-5-5-5-5-5-5-5-5--|

 

G:------------------------------------------------------------------|

D:------------------------------------------------------------------|

A:-5-5-5-5-5-5-5-5--------------------------------------------------|x1

E:-----------------7-7-7-7-7-7-7-7-3-3-3-3-3-3-3-3-5----------------|

 

 

Return to my Bowling For Soup bass tabs page

The Tablature is Copyright its respective owners.

Sign Up For My Newsletter
Subscribe | Unsubscribe

Site Map | Disclaimer | Privacy Policy | Media Kit | Submissions/Corrections

Website © 2000-2014 mattsmusicpage.com. All rights reserved.

Legal & DMCA: Matt's Music Page has been providing lyrics and tabs in a legal way, paying royalties each year to a few organizations. Then, all lyrics and tabs were removed from the site. Now, there's a new owner to the site, which purchased it August 26, 2014, and he is in negotiation to obtain licensing from BMI at the moment. If you have a specific DMCA request -- please do not hesitate to contact me via the contact button on top. I will do my very best to keep this site fully legal.

Get our toolbar!