Your One-Stop Source For
Music Lyrics
Bass and Guitar Tabs
and More...
Music Lyrics Bass and Guitar Tabs

 

The Tabs Are Below

Learn To Read Tab
Chords Handbook
Corrections & Additions
Get Official Tab
Bowling For Soup tabs @ 911Tabs

Artist: Bowling For Soup

Song: The Bitch Song

 

This is the greatest band ever! And this is a cool song

 

~=let ring

 

Intro

G-----------------------------

D-5-----5555555---------------

A---5-3--------5555555-333333-

E-----------------------------

 

Verse

G---------------

D-5-----55------

A--5-3~---55-3~-

E---------------

 

Chorus

G-------------------------

D-------------------------

A---------555555533333333-

E-3333333-----------------

 

2nd Verse

G-----------------------

D-5555555---------------

A--------5555555-333333-

E-----------------------

 

Bass Solo

G----------

D-5--------

A--5-75-3~-

E----------

 

Bridge

G-----------------------

D-555555----------------

A-------55555-333333333-

E-----------------------

 

After Bridge

G-----------------

D-----------------

A----555555555-3~-

E-33--------------

 

End

G------------------------

D-5-------55555555555555-

A---5-3~-----------------

E------------------------

 

Coolest song, pretty much the same the whole way through.

 

Return to my Bowling For Soup bass tabs page

The Tablature is Copyright its respective owners.

Sign Up For My Newsletter
Subscribe | Unsubscribe

Site Map | Disclaimer | Privacy Policy | Media Kit | Submissions/Corrections

Website © 2000-2014 mattsmusicpage.com. All rights reserved.

Legal & DMCA: Matt's Music Page has been providing lyrics and tabs in a legal way, paying royalties each year to a few organizations. Then, all lyrics and tabs were removed from the site. Now, there's a new owner to the site, which purchased it August 26, 2014, and he is in negotiation to obtain licensing from BMI at the moment. If you have a specific DMCA request -- please do not hesitate to contact me via the contact button on top. I will do my very best to keep this site fully legal.

Get our toolbar!