Your One-Stop Source For
Music Lyrics
Bass and Guitar Tabs
and More...
Music Lyrics Bass and Guitar Tabs

 

The Tabs Are Below

Learn To Read Tab
Chords Handbook
Corrections & Additions
Get Official Tab
Bowling For Soup tabs @ 911Tabs

Intro

G|------------------------------------------------------|

D|------------------------------------------------------|

A|-7-5-4---------------------------------------------------| x4

E|--------5----------------------------------------------|

 

G|------------------------------------------------------|

D|------------------------------------------------------|

A|------------------------------------------------------|

E|----7-7-7-7-7-7-7-7-7-7-7-7-7-7-7-7-------------------|

 

Verse

G|------------------------------------------------------|

D|------------------------------------------------------|

A|-7-7-7-7-7-7-7-7--------------------------------------|x4

E |--------------------------------5-5-5-5-5-5-5-5------|

 

G|------------------------------------------------------|

D|------------------------------------------------------|

A|------------------------------------------------------|

E|--------- 7-7-7-7-7-7-7-7-7-7-7-7-7-7-7-7-------------|

 

Chorus

G|--------------------------------------------------------------|

D|--------------------------------------------------------------|

A|-5-5-5-5-5-5-5-5-5-5-5-5-5-5-5-5---------------5-5-5-5-5-5-5-5|x4

E --------------------------------5-5-5-5-5-5-5-5---------------|

 

G|------------------------------------------------------|

D|------------------------------------------------------|

A|2-2-2-2-------3-3-3-3---------------------------------|

E|---------------5-5-5-5--------------------------------|

 

Verse

G|------------------------------------------------------|

D|------------------------------------------------------|

A|-7-7-7-7-7-7-7-7--------------------------------------|x4

E |--------------------------------5-5-5-5-5-5-5-5------|

 

G|------------------------------------------------------|

D|------------------------------------------------------|

A|------------------------------------------------------|

E|--------- 7-7-7-7-7-7-7-7-7-7-7-7-7-7-7-7-------------|

 

Chorus

G|--------------------------------------------------------------|

D|--------------------------------------------------------------|

A|-5-5-5-5-5-5-5-5-5-5-5-5-5-5-5-5---------------5-5-5-5-5-5-5-5|x4

E --------------------------------5-5-5-5-5-5-5-5---------------|

 

G|------------------------------------------------------|

D|------------------------------------------------------|

A|2-2-2-2-------3-3-3-3---------------------------------|

E|---------------5-5-5-5--------------------------------|

 

Bridge

Bridge

G|------------------------------------------------------|

D|------------------------------------------------------|

A|-8-8-8-8-8-8-8-8-------------5-5-5-5-5-5-5-5----------|

E|-----------------5-5-5-5-5-5-5-5----------------------|

 

 

Return to my Bowling For Soup bass tabs page

The Tablature is Copyright its respective owners.

Sign Up For My Newsletter
Subscribe | Unsubscribe

Site Map | Disclaimer | Privacy Policy | Media Kit | Submissions/Corrections

Website © 2000-2014 mattsmusicpage.com. All rights reserved.

Legal & DMCA: Matt's Music Page has been providing lyrics and tabs in a legal way, paying royalties each year to a few organizations. Then, all lyrics and tabs were removed from the site. Now, there's a new owner to the site, which purchased it August 26, 2014, and he is in negotiation to obtain licensing from BMI at the moment. If you have a specific DMCA request -- please do not hesitate to contact me via the contact button on top. I will do my very best to keep this site fully legal.

Get our toolbar!