Your One-Stop Source For
Music Lyrics
Bass and Guitar Tabs
and More...
Music Lyrics Bass and Guitar Tabs

 

The Tabs Are Below

Learn To Read Tab
Chords Handbook
Corrections & Additions
Get Official Tab
Blur tabs @ 911Tabs

Artist: Blur

Album: Think Tank

Song: Sweet Song

Tabbed by: Joe Warzala (crystalclrblader@usa.com)

www.think-tank.cjb.net

 

This song was probably the hardest to tab out so it may not be completely correct but it sounds right.

 

e/-------------------

B/------4-------4----

G/----3-------3------

D/--1-------0--------(x8)

A/--------3-------3--

E/-------------------

 

e/----------------------------------------------------------------------------

B/------4--------4----------4--------3--------------------------------4-3-----

G/----3--------3----------3------------3-------5------5----------------3------ Main Riff A

D/--1--------0-----0-----------------------------6------6--------------------- (x2)

A/---------3------------3-----3----1-----1--------------------1---1-1---------

E/-------------------------------------------4-----4-4----4-------------------

 

e/------------- -----------------------------------

B/------------- --4-------4-------4-------4--------

G/---5--------- ----3-------3-------3-------3------ MAIN Riff B (both lines)

D/----6--------(x4) --------------1---------------1----

A/------------- -----------------------------------

E/--4-----4-4-- -----------------------------------

 

REPEAT MAIN RIFFS A&B

 

e/--------------------------------------------------------

B/--------------------------------------------------------

G/----1------------7-----------3--------2---------1------- REFRAIN (x2)

D/---3---3--------8---8--------5--------4--------3---3---- (I believe, I believe...)

A/--3-----3------8-----8------5--------4--------3-----3---

E/-1-------1----6-------6----3---3----2---2----1-------1--

 

 

e/-----------------------------------------

B/-----------------------------------------

G/-----1------------7------------7--8------

D/----3---3--------8---8-------------8-----

A/---3-----3------8-----8------8------8----

E/--1-------1----6-------6----6------------

 

REPEAT MAIN RIFFS A&B

REPEAT REFRAIN

(No guitar from about 3:13 - 3:33)

 

 

e/-------------------------------------------------------------

B/------4-----4----------4--------3----------1-3-------4-3--4--

G/----3-----3----------3------------3-------------------------- Ending

D/--1-----0-----0------------------------------------1---------

A/------3------------3-----3----1-----1----4-------------------

E/-------------------------------------------------------------

 

e/------3--

B/------4--

G/----3---- End

D/--1------

A/---------

E/---------

 

 

Return to my to my Blur tabs page

The Tablature is Copyright its respective owners.

Sign Up For My Newsletter
Subscribe | Unsubscribe

Site Map | Disclaimer | Privacy Policy | Media Kit | Submissions/Corrections

Website © 2000-2014 mattsmusicpage.com. All rights reserved.

Legal & DMCA: Matt's Music Page has been providing lyrics and tabs in a legal way, paying royalties each year to a few organizations. Then, all lyrics and tabs were removed from the site. Now, there's a new owner to the site, which purchased it August 26, 2014, and he is in negotiation to obtain licensing from BMI at the moment. If you have a specific DMCA request -- please do not hesitate to contact me via the contact button on top. I will do my very best to keep this site fully legal.

Get our toolbar!

 

VINTAGE SORRENTO MUSIC JEWELRY BOX
$45.0
VINTAGE SORRENTO MUSIC JEWELRY BOX picture


VINTAGE LACQUERED MUSIC BOX JAPAN
$25.99
VINTAGE LACQUERED MUSIC BOX JAPAN picture


Vintage Kehlsteinhaus Bavaria Germany Colorscope Cow Bell View Master Music Box
$8.99
Vintage Kehlsteinhaus Bavaria Germany Colorscope Cow Bell View Master Music Box picture


VINTAGE SCHMIDT Signed Collectible Musical Turning Clown
$9.99
VINTAGE  SCHMIDT Signed Collectible Musical Turning Clown picture


Vintage - Linen - Postcard - Stage - Radio City Music Hall - New York City
$3.75
Vintage - Linen - Postcard - Stage - Radio City Music Hall - New York City   picture