Your One-Stop Source For
Music Lyrics
Bass and Guitar Tabs
and More...
Music Lyrics Bass and Guitar Tabs

 

The Tabs Are Below

Learn To Read Tab
Chords Handbook
Corrections & Additions
Get Official Tab
Blur tabs @ 911Tabs

REPETITION

 

E --0-0-0-0--0-0-0-0--0-0-0-0--0-0-0-0------------------

B ------------------------------------------------------

G ------------------------------------------------------

D ------------------------------------------------------

A ------------------------------------------------------

E ------------------------------------------------------

 

(switch pick up on & off) End of verse

E ---------------------------- ----------------

B -----------5-5-5-5-5-5-5-5-- ----------------

G --6--(6)^------------------- -8^-^-^-^-------

D ---------------------------- -----------5-6--

A ---------------------------- ----------------

E ---------------------------- ----------------

 

A G E

So sure, so sure you are

 

A G E

Nothing can touch you now

 

A G E

I need to know did you think of me

 

A G E

But you've forgotten me now

 

A G E

Slow down, don't be so

 

A G E

Eager to let me go

 

A G E

Realize it could change you

 

A G A

It could change your mind

 

E F# A

Try try try

 

E F# A

Try try try

 

B G A

All things remain the same

 

B G A

So why try again-ain-ain-ain

 

E F# A

-ain-ain-ain

 

E F# A G (after 2nd chorus)

Try again-ain-ain

 

Return to my to my Blur tabs page

The Tablature is Copyright its respective owners.

Sign Up For My Newsletter
Subscribe | Unsubscribe

Site Map | Disclaimer | Privacy Policy | Media Kit | Submissions/Corrections

Website © 2000-2014 mattsmusicpage.com. All rights reserved.

Legal & DMCA: Matt's Music Page has been providing lyrics and tabs in a legal way, paying royalties each year to a few organizations. Then, all lyrics and tabs were removed from the site. Now, there's a new owner to the site, which purchased it August 26, 2014, and he is in negotiation to obtain licensing from BMI at the moment. If you have a specific DMCA request -- please do not hesitate to contact me via the contact button on top. I will do my very best to keep this site fully legal.

Get our toolbar!