Your One-Stop Source For
Music Lyrics
Bass and Guitar Tabs
and More...
Music Lyrics Bass and Guitar Tabs

 

The Tabs Are Below

Learn To Read Tab
Chords Handbook
Corrections & Additions
Get Official Tab
Blur tabs @ 911Tabs

NO DISTANCE LEFT TO RUN

 

Thanks to: AAuuddee@aol.com

 

INTRO:

--------------------------------------------I

------------------------------------10------I

--4h5p4-----------------------------11------I

--------0--3/--0(x6)(x9 3rd time)-----0--0--I(x8)

--------------------------------------------I

--------------------------------------------I

 

FILL TO PLAY IN THE VERSES:

--------------------------------------------------------------------------------I

--10--8--7--5--3--5--10--10--12--10h12p10--10h12p10--10h12p10--10--------10-----I

--11--9--9--6--4--6--11--11--11--11-11-11--11-11-11--11-11-11-----11--------10--I

---------------------------------------------------------------------11---------I

--------------------------------------------------------------------------------I

--------------------------------------------------------------------------------I

 

--------------------------------------------------------------------------------I

--10--10--------3------6------3-----3----------------------------------7--7h8p7-I

---9---9--0--h--4--s---7--s---3--s--2--4h5p4------------------------------------I

--11--11--0-----5------8------3---------------0-2/--3/--3/--3/--3/--7-----------I (x4)

--------------------------------------------------------------------------------I

--------------------------------------------------------------------------------I

 

 

It's over

You don't need to tell me

I hope you're with someone

Who makes you feel safe in your slee-

-ping tonight

I won't kill myself, trying to stay in your life

I got no distance left to run

 

When you see me

Please turn your back and walk away

I don't want to see you coz I know the dreams that you keep

Is wearing me

When you're coming down, think of me here

I got no distance left to run

 

It's over

I knew it would end this way

I hope you're with someone

Who makes you feel that this life

Is the night

And it settles down,stays around,spends more time with you

I got no distance left to run

 

ENDING:

-------------------------I

-----3----------------3--I

--4--4--2-(x2)--5--4--2--I

-------------------------I (x4)

-------------------------I

-------------------------I

 

Return to my to my Blur tabs page

The Tablature is Copyright its respective owners.

Sign Up For My Newsletter
Subscribe | Unsubscribe

Site Map | Disclaimer | Privacy Policy | Media Kit | Submissions/Corrections

Website © 2000-2014 mattsmusicpage.com. All rights reserved.

Legal & DMCA: Matt's Music Page has been providing lyrics and tabs in a legal way, paying royalties each year to a few organizations. Then, all lyrics and tabs were removed from the site. Now, there's a new owner to the site, which purchased it August 26, 2014, and he is in negotiation to obtain licensing from BMI at the moment. If you have a specific DMCA request -- please do not hesitate to contact me via the contact button on top. I will do my very best to keep this site fully legal.

Get our toolbar!