Your One-Stop Source For
Music Lyrics
Bass and Guitar Tabs
and More...
Music Lyrics Bass and Guitar Tabs

 

The Tabs Are Below

Learn To Read Tab
Chords Handbook
Corrections & Additions
Get Official Tab
Blur tabs @ 911Tabs

Artist: Blur

Album: Think Tank

Song: Moroccan Peoples Revolutionary Bowls Club

 

 

e/-----------

B/-----------

G/----------- GUITAR I

D/----------- (Play this from 0:13 up until the solo, after solo play until 1:50 and stop again)

A/--0-0-0-0--

E/-----------

 

e/---------9-7-9--5---7-----7-5-7-5--7-9-----

B/--5----7----------7---5/7-------------7----

G/------------------------------------------- SOLO (x3) GUITAR II

D/-------------------------------------------

A/-------------------------------------------

E/-------------------------------------------

 

e/-------9-7-9--5---7------7-7-7-7--7-5-5----

B/--5--7----------7---5/7--------------------

G/------------------------------------------- SOLO END (x1) GUITAR II

D/-------------------------------------------

A/-------------------------------------------

E/-------------------------------------------

 

e/---------

B/---------

G/--------- A Third Guitar?

D/----2---- Fill-In's (Start During Solo ends about 1:50)

A/--4---0--

E/---------

 

e/--------------------------------------------------------------------------------

B/--------------------------------------------------------------------------------

G/------------------------------------------------------------------ Third Guitar?

D/------------------------------------------------------------------------------2-

A/--0-0-0-2/4-4-4-2 (x3)--0-0-0---0-2/4 2-0-0-0-2/3/2/3/2-0-2/3/2/3/2/3/2/3/2--0--

E/------------------------------4-------------------------------------------------

 

 

e/--17-17-17^18-18-18-18/17-------

B/--------------------------------

G/-------------------------------- Bend (end of guitar parts)

D/-------------------------------- (x4)

A/--------------------------------

E/--------------------------------

 

 

Return to my to my Blur tabs page

The Tablature is Copyright its respective owners.

Sign Up For My Newsletter
Subscribe | Unsubscribe

Site Map | Disclaimer | Privacy Policy | Media Kit | Submissions/Corrections

Website © 2000-2014 mattsmusicpage.com. All rights reserved.

Legal & DMCA: Matt's Music Page has been providing lyrics and tabs in a legal way, paying royalties each year to a few organizations. Then, all lyrics and tabs were removed from the site. Now, there's a new owner to the site, which purchased it August 26, 2014, and he is in negotiation to obtain licensing from BMI at the moment. If you have a specific DMCA request -- please do not hesitate to contact me via the contact button on top. I will do my very best to keep this site fully legal.

Get our toolbar!

 

VINTAGE SORRENTO MUSIC JEWELRY BOX
$45.0
VINTAGE SORRENTO MUSIC JEWELRY BOX picture


VINTAGE LACQUERED MUSIC BOX JAPAN
$25.99
VINTAGE LACQUERED MUSIC BOX JAPAN picture


Vintage Kehlsteinhaus Bavaria Germany Colorscope Cow Bell View Master Music Box
$8.99
Vintage Kehlsteinhaus Bavaria Germany Colorscope Cow Bell View Master Music Box picture


VINTAGE SCHMIDT Signed Collectible Musical Turning Clown
$9.99
VINTAGE  SCHMIDT Signed Collectible Musical Turning Clown picture


Vintage - Linen - Postcard - Stage - Radio City Music Hall - New York City
$3.75
Vintage - Linen - Postcard - Stage - Radio City Music Hall - New York City   picture