Your One-Stop Source For
Music Lyrics
Bass and Guitar Tabs
and More...
Music Lyrics Bass and Guitar Tabs

 

The Tabs Are Below

Learn To Read Tab
Chords Handbook
Corrections & Additions
Get Official Tab
Blur tabs @ 911Tabs

HIGH COOL

Intro:

 

e|----------------

B|----------------

G|------9------7--

D|----9------7----

A|--7----x-5------

E|----------------

 

Main:

 

e|---------------

B|-----7---h--5--

G|-----7--5-7----

D|---------------

A|--0------------

E|---------------

 

Verse:

 

e|--------------- ------0-----2--

B|-----7---h--5-- ----0-----1----

G|-----7--5-7---- 3x --1-----2------

D|--------------- ---------------

A|--0------------ ---------------

E|--------------- ---------------

 

A

When you come here which you sometimes do

 

E D7 A

Don't think that I really want you to

 

A

And if you come here which you always do

 

E D7 A

Don't think that I expect you to

 

Chorus:

 

e|-------------------------------------12-10-10-10----------12-10-10-10--

B|-----------h---p-------------------------------------------------------

G|--7-7--h--5-7-9-7--7-7-7-7---p---p-----------------p---p---------------

D|------5-7-------------------9-7-9-7---------------9-7-9-7--------------

A|-----------------------------------------------------------------------

E|-----------------------------------------------------------------------

 

D A

Is that all I give you (2x)

 

A

And you talk too much which you always do

 

E D7 A

Don't think that I really want you to

 

A

And if you talk too much which you always do

 

E D7 A

Don't think that I really need you to

 

Middle:

 

e|----- --5--

B|----- --5--

G|--2-- --6--

D|--2-- 8x ----- 8x

A|--0-- -----

E|----- -----

 

A

AhAhAhAhAh Ah Ah

Return to my to my Blur tabs page

The Tablature is Copyright its respective owners.

Sign Up For My Newsletter
Subscribe | Unsubscribe

Site Map | Disclaimer | Privacy Policy | Media Kit | Submissions/Corrections

Website © 2000-2014 mattsmusicpage.com. All rights reserved.

Legal & DMCA: Matt's Music Page has been providing lyrics and tabs in a legal way, paying royalties each year to a few organizations. Then, all lyrics and tabs were removed from the site. Now, there's a new owner to the site, which purchased it August 26, 2014, and he is in negotiation to obtain licensing from BMI at the moment. If you have a specific DMCA request -- please do not hesitate to contact me via the contact button on top. I will do my very best to keep this site fully legal.

Get our toolbar!