Your One-Stop Source For
Music Lyrics
Bass and Guitar Tabs
and More...
Music Lyrics Bass and Guitar Tabs

 

The Tabs Are Below

Learn To Read Tab
Chords Handbook
Corrections & Additions
Get Official Tab
Blur tabs @ 911Tabs

CHARMLESS MAN

 

A

e --------------------------------------------------

B -----8b------5----------------8b------5-----------

G --6-------x--6----7h6p7----6----------6----7h6p7--

D --7-------x-------7--------7-------x-------7------

A --------------------------------------------------

E --------------------------------------------------

 

Ooo-ooo-wooo-ooo-ooh Ooo-ooo-ooh

D A D

e ----------------0-------------------------0-------

B -----8r-8b---2--2----3-----3p2h3p2-----2--2----3--

G --6----------2-------2-------------2---2-------2--

D --7-----------------------------------------------

A --------------------------------------------------

E --------------------------------------------------

 

E E

|--------------------------|--4--4--4--4--4--4--4--4--

|----3p2h3p2-----5----5----|--5--5--5--5--5--5--5--5--

|------------2---4----4----|--4--4--4--4--4--4--4--4--

|--------------------------|--------------------------

|--------------------------|--------------------------

|--------------------------|--------------------------

 

(Piano backing only, lyrics below)

F 6x

|--8---8---8---8---8---8---8-----||--------------------||

|--10--10--10--10--10--10--10----||--------------------||

|--10--10--10--10--10--10--10----||*------------------*||

|--------------------------------||*------------------*||

|--------------------------------||--------------------||

|--------------------------------||--------------------||

 

(w/ piano backing only)

I met him in a crowded room

Where people go to drink away their gloom

He sat me down and so began

The story of a charmless man

 

 

| Verse |

 

A Cm/5+ F# Repeat 1x

||---------5---------------|---------------------2-----||

||---------5---------------|--2---------------2--------||

||*--6--6--6----5--5--5----|--3--3-4-3-----3----------*||

||*--7--7--7----6--6--6----|--4--4-4-4--4-------------*||

||---7--7--7----6--6--6----|---------------------------||

||---5--5--5----4--4--4----|---------------------------||

1. Educated the expensive way

2. He knows his Claret from his Beaujolais

 

B5 C#5 D5 E5 A5 D5

|------------------------|------------------------|------------------------|

|------------------------|------------------------|------------------------|

|--4--4--4----6--6--6----|--7--7--7----9--9--9----|-------------7--7--7----|

|--4--4--4----6--6--6----|--7--7--7----9--9--9----|--7--7--7----7--7--7----|

|--2--2--2----4--4--4----|--5--5--5----7--7--7----|--7--7--7----5--5--5----|

|------------------------|------------------------|--5--5--5---------------|

I think he'd like to have been Ronnie Kray But then, nature didn't

 

A5

|-----9h10p9-10p9-10p9~-------|

|-----------------------------|

|-----------------------------|

|--7--------------------------|

|--7--------------------------|

|--5--------------------------|

make him that way (that way)

 

 

Bridge :

 

A Cm/5+ F# Repeat 1x

||---------5---------------|---------------------2-----||

||---------5---------------|--2---------------2--------||

||*--6--6--6----5--5--5----|--3--3-4-3-----3----------*||

||*--7--7--7----6--6--6----|--4--4-4-4--4-------------*||

||---7--7--7----6--6--6----|---------------------------||

||---5--5--5----4--4--4----|---------------------------||

1. Na na na na na na naah____

2. Na na na na na na naah____

 

 

Chorus :

 

A

||---------------------------|

||------8b------5------------|

||*--6-------x--6----7h6p7---|

||*--7-------x-------7-------|

||---------------------------|

||---------------------------|

1. He thinks he's educated,

2. circles of____

 

D

|--------------------------|----------------0-------|

|-----8b------5------------|-----8r-8b---2--2----3--|

|--6----------6----7h6p7---|--6----------2-------2--|

|--7-------x-------7-------|--7---------------------|

|--------------------------|------------------------|

|--------------------------|------------------------|

1. airs those family shares Will protect him

2. friends Who just pretend that they like him

 

 

A D E

|-------------------0-------|---------------------------||

|----3p2h3p2-----2--2----3--|----3p2h3p2----------------||

|------------2---2-------2--|------------2-------------*||

|---------------------------|--------------------------*||

|---------------------------|----------------2----2-----||

|---------------------------|----------------0----0-----||

1. that we'll respect him He moves in

2. He does the same to them

 

E F

|--4--4--4--4--4--4--4--4--|--8---8---8---8---8---8---8-----|

|--5--5--5--5--5--5--5--5--|--10--10--10--10--10--10--10----|

|--4--4--4--4--4--4--4--4--|--10--10--10--10--10--10--10----|

|--------------------------|--------------------------------|

|--------------------------|--------------------------------|

|--------------------------|--------------------------------|

And when you put it all together, there's the model of a charmless man

 

 

| Bridge |

 

| Verse |

 

Lyrics:

He knows the swingers and their cavalry

Says he can get in anywhere for free

I began to go a little cross-eyed

And from this charmless man I just had to hide (away)

 

| Bridge |

 

| Chorus |

 

Lyrics:

He talks at speed, he gets nosebleeds

He doesn't see (Ooo-ooo-wooo-ooo-ooh) his days are tumbling

Down upon him (Ooo-ooo-ooh)

And yet he tries so hard to please

He's just so keen (Ooo-ooo-wooo-ooo-ooh) for you to listen (Ooo-ooo-ooh)

But no one's listening

And when you put it all together, there's the model of a charmless man

 

| Solo |

 

A Cm/5+

||---------5---------------|

||---------5---------------|

||*--6--6--6----5--5--5----|

||*--7--7--7----6--6--6----|

||---7--7--7----6--6--6----|

||---5--5--5----4--4--4----|

 

 

F# Repeat 1X

|-------------5----------||------------------------|

|--2--6/---7-------------||--5--3-------7--5-------|

|--3-------------6------*||--------4----------6----|

|--4--------------------*||------------------------|

|------------------------||------------------------|

|------------------------||------------------------|

 

 

 

|---------------------12----|--0--0--0----0--0----0--|

|--9--7-----7----7/12-------|--0--0--0----0--0----0--|

|--------7------------------|--6--6--6----5--5----6--|

|---------------------------|--7--7--7----6--6----7--|

|---------------------------|------------------------|

|---------------------------|------------------------|

 

 

 

|-------------------------||

|----5--------------------||

|----6h7-6h7p6h7p6~-------||

|----7--------------------||

|-------------------------||

|-------------------------||

 

 

| Chorus |

 

Lyrics :

He thinks he's educated, airs those family shares (Ooo-ooo-wooo-ooo-ooh)

Will protect him (Ooo-ooo-ooh), that you'll respect him

And yet he tries so hard to please

He's just so keen (Ooo-ooo-wooo-ooo-ooh) for you to listen (Ooo-ooo-ooh)

But no one's listening

And when you put it all together, there's the model of a charmless man

 

| Bridge |

 

| Outro |

 

A G# G F# F E A

|------------------|---------------|---------------|--5----|

|------------------|---------------|---------------|--5----|

|------------------|---------------|---------------|--6----|

|--7-7-7--6-6-6-6--|--5-5-5-4-4-4--|--3-3-3-3-2-2--|--7----|

|--7-7-7--6-6-6-6--|--5-5-5-4-4-4--|--3-3-3-3-2-2--|--7----|

|--5-5-5--4-4-4-4--|--3-3-3-2-2-2--|--1-1-1-1-0-0--|--5----|

nanana nanana nanananaah nananananana naah

 

Return to my to my Blur tabs page

The Tablature is Copyright its respective owners.

Sign Up For My Newsletter
Subscribe | Unsubscribe

Site Map | Disclaimer | Privacy Policy | Media Kit | Submissions/Corrections

Website © 2000-2014 mattsmusicpage.com. All rights reserved.

Legal & DMCA: Matt's Music Page has been providing lyrics and tabs in a legal way, paying royalties each year to a few organizations. Then, all lyrics and tabs were removed from the site. Now, there's a new owner to the site, which purchased it August 26, 2014, and he is in negotiation to obtain licensing from BMI at the moment. If you have a specific DMCA request -- please do not hesitate to contact me via the contact button on top. I will do my very best to keep this site fully legal.

Get our toolbar!

 

VINTAGE SORRENTO MUSIC JEWELRY BOX
$45.0
VINTAGE SORRENTO MUSIC JEWELRY BOX picture


VINTAGE LACQUERED MUSIC BOX JAPAN
$25.99
VINTAGE LACQUERED MUSIC BOX JAPAN picture


Vintage Kehlsteinhaus Bavaria Germany Colorscope Cow Bell View Master Music Box
$8.99
Vintage Kehlsteinhaus Bavaria Germany Colorscope Cow Bell View Master Music Box picture


VINTAGE SCHMIDT Signed Collectible Musical Turning Clown
$9.99
VINTAGE  SCHMIDT Signed Collectible Musical Turning Clown picture


Vintage - Linen - Postcard - Stage - Radio City Music Hall - New York City
$3.75
Vintage - Linen - Postcard - Stage - Radio City Music Hall - New York City   picture