Your One-Stop Source For
Music Lyrics
Bass and Guitar Tabs
and More...
Music Lyrics Bass and Guitar Tabs

 

The Tabs Are Below

Learn To Read Tab
Chords Handbook
Corrections & Additions
Get Official Tab
Blur tabs @ 911Tabs

Blur – Out Of Time

Tabbed by: sinniecoyote

 

Intro

G|------------------------------------------------------------------------|

D|------------------------------------------------------------------------|

A|---------1-------------1------------1-----3-----1-------------1---------|

E|-12\-0-----1---(3)-0-----1--1-3-0-----1-----0-----1---(3)-0-----1---(3)-|

 

G|------------------------------------------------------------------------|

D|------------------------------------------2---/7-----5-----7------------|

A|-----1---3---------1-----------1----1---3---------8----7-----8----8-8/7-|

E|-0-----1---(1)-0-----1---3-0-----1----1-------------------------8-------|

 

G|-------------------------|

D|-7------------/7---------|

A|---8------7------8--10\7-|

E|-------8-----------------|

 

Verse 1 (starting from “where’s the love...”)

G|---------------------------------------------------------7-|

D|------------5----5-5---5/--------------------5---5--5--9---|

A|-8----8/7------------5----7---8----8/7---8-----------------|

E|----8----------------------------8-------------------------|

 

G|-------------------------------------------------------------7-|

D|----------------5---5--5-5-5---------------------5----5-5--9---|

A|-7---8----8/7---------------5/7---8----8/7---8-----------------|

E|--------8----------------------------8-------------------------|

 

G|-----------------------------------------------------------|

D|-------------------------------7---6---5---3------5----5---|

A|-7-7--8-8--7-7--8-8--7-7--8-8----------------------------5-|

E|-----------------------------------------------------------|

 

Verse 2 (feel the sunshine...)

G|------------------------------------------------------|

D|---------------5----5-5-------------------5--5--5-5-5-|

A|-7---8---8\7---------5--7---8---7---8---8----------5--|

E|------------------------------------------------------|

 

G|----------------------------------------------------------------|

D|--------------------------------7---6---5---3------5--5--5--5-5-|

A|-7-7--88-8--7-7--8-8--7-7--8-8----------------------------------|

E|----------------------------------------------------------------|

 

Solo Guitar Part

G|----------------------------------------------------------------------------|

D|----------------------------------------------------------------------------|

A|-----1----------1-----------1------------1-----3-----1----------1-------3---|

E|-0-----1----0-----1---3-0-----1--1-3-0-----1-----0-----1----0-----1-1-1---0-|

 

G|-----------------------|

D|-/7-----5---5-5--5-5-5-|

A|-----8--------------5--|

E|-----------------------|

 

Outro (and you...)

G|----------------------------------------------------------------------------|

D|-------------------------------7---6---5---3---7---6---5---3------5--5--5-5-|

A|-7-7--8-8--7-7--8-8--7-7--8-8-----------------------------------------------|

E|----------------------------------------------------------------------------|

 

G|-------------------------------|

D|-3------5--5--5-5---3----------|

A|---------------------------3---|

E|-------------------------------|

 

 

Return to my to my Blur bass tabs page

The Tablature is Copyright its respective owners.

Sign Up For My Newsletter
Subscribe | Unsubscribe

Site Map | Disclaimer | Privacy Policy | Media Kit | Submissions/Corrections

Website © 2000-2014 mattsmusicpage.com. All rights reserved.

Legal & DMCA: Matt's Music Page has been providing lyrics and tabs in a legal way, paying royalties each year to a few organizations. Then, all lyrics and tabs were removed from the site. Now, there's a new owner to the site, which purchased it August 26, 2014, and he is in negotiation to obtain licensing from BMI at the moment. If you have a specific DMCA request -- please do not hesitate to contact me via the contact button on top. I will do my very best to keep this site fully legal.

Get our toolbar!