Your One-Stop Source For
Music Lyrics
Bass and Guitar Tabs
and More...
>Music Lyrics Bass and Guitar Tabs

 

The Tabs Are Below

Learn To Read Tab
Chords Handbook
Corrections & Additions
Get Official Tab
Blur tabs @ 911Tabs

Intro

G--------------------------------------------------|

D--------------------------------------------------|

A-7-7-5-7-7----7-7-5-7-7----5-5-5-7-5----7-7-5-7-7-| (repeat until drums come in)

E--------------------------------------------------|

 

Verse

G--------------------------------------|

D--------------------------------------|

A----------------------0-5/10----------| (repeat until lyrics)

E-0--00------12/2------------------0-0-|

 

Break (Jets are like comets at sunset...) (no drums)

G-----------------------------------------------------------------|

D-----------------------------------------------------------------|

A-7-7-7-7-7---7---7-7-7-7-7---7-------------------7-7-7-7-7---7---|

E---------------------------------7-7-7-7-7---7-------------------|

 

Break 2 (Jets are like comets at sunset...) (drums)

G-----------------------------------------------------|

D-----------------------------------------------------|

A-7-7-5---5-7---7-7-5---5-7-------------7-7-5---5-7---|

E-------7-----0-------7-----0--7-7-7-70-------7-----0-|

 

Sax Solo

G--------------|

D--------------|

A--7-7-7-7-----|

E------------0-|

 

It sounds fantastic if you slap every open E.

 

Blur - Think Tank - Track 11.

 

Return to my to my Blur bass tabs page

The Tablature is Copyright its respective owners.

Sign Up For My Newsletter
Subscribe | Unsubscribe

Site Map | Disclaimer | Privacy Policy | Media Kit | Submissions/Corrections

Website © 2000-2014 mattsmusicpage.com. All rights reserved.

Legal & DMCA: Matt's Music Page has been providing lyrics and tabs in a legal way, paying royalties each year to a few organizations. Then, all lyrics and tabs were removed from the site. Now, there's a new owner to the site, which purchased it August 26, 2014, and he is in negotiation to obtain licensing from BMI at the moment. If you have a specific DMCA request -- please do not hesitate to contact me via the contact button on top. I will do my very best to keep this site fully legal.

Get our toolbar!

 

Willits Musical Carolsel group 2 #1528 single horse ceramic top & horse move VTG
$13.99
Willits Musical Carolsel group 2 #1528 single horse ceramic top & horse move VTG picture


Vintage Cherished Teddies Musical Snowglobe Enesco "O Tannebaum" 1997
$9.99
Vintage Cherished Teddies Musical Snowglobe Enesco


Vintage Deco musical Silver and blue Vanity powder box Large
$15.0
Vintage Deco  musical Silver and blue Vanity powder  box Large picture


SPANIEL MOTHER DOG & HER PUPPY~VTG MUSIC BOX PLAYS "ARE YOU LONESOME TONITE"
$4.99
 SPANIEL MOTHER DOG & HER PUPPY~VTG MUSIC BOX PLAYS


Vintage Made In Japan Walt Disney Mickey Mouse w/ Piano Music Box (T2B15)
$75.0
Vintage Made In Japan Walt Disney Mickey Mouse w/ Piano Music Box (T2B15) picture