Your One-Stop Source For
Music Lyrics
Bass and Guitar Tabs
and More...
Music Lyrics Bass and Guitar Tabs

 

The Tabs Are Below

Learn To Read Tab
Chords Handbook
Corrections & Additions
Get Official Tab
Blur tabs @ 911Tabs

 

Blur

Bass line to "Essex Dogs"

 

 

 

G-----9--------6----------9--------6----------8-------8-----7-----

D--7-----7--4-----4--2/7-----7--4-----4--2/6-----6-------9-----9--

A-----------------------------------------------------------------

E-----------------------------------------------------------------

 

G-----------------------------------------------------------------

D--7--7--7--7----/10--10--12--14--14--12--------------------------

A-----------------------------------------14--12--10--------------

E-----------------------------------------------------12--10--10--

 

G-----9--------6----------9--------6----------8-------8-----7-----

D--7-----7--4-----4--2/7-----7--4-----4--2/6-----6-------9-----9--

A-----------------------------------------------------------------

E-----------------------------------------------------------------

 

G---------------------------------------------------------|

D--7--7--7--7/10--12--14--14--12/14-12------12----h--p----|

A---------------------------------------14------12-14-12--|

E---------------------------------------------------------|

 

 

 

G--------------------------------|---------------------------------|

D--9-9-9-9-9-9-9-9-7-------------|--7-7-7-7-7-7-7-9-7--------------|

A--------------------9--9--------|---------------------9--9-----7--|

E--------------------------9--9--|---------------------------9-----|

 

 

G------------------------------|--------------------------------|

D--9-9-9-9-9-9-9-9-7-----------|-7-7-7-7-7-7-7-9-7--------------|

A---------------------9--9-----|--------------------9--9-----7--|

E---------------------------9--|--------------------------9-----|

 

 

G------9-------------6-------------8----------11------------9------9-----

D---7-----7-----7\4-----4--2/6--------6--9--------12--9--7-----7------7--

A------------------------------------------------------------------------

E------------------------------------------------------------------------

 

 

 

G-----------------------------------------------------------

D--10--10--10--14--14---14--14--14--12----------14--12------

A---------------------------------------14--12----------12--

E-----------------------------------------------------------

 

 

 

G---------------------------------------------|

D--14--12----------------------------------2--|

A----------14--12------------------/5\---1----|

E------------------15--12--10\3--0-----0------|

 

 

 

G------------------------------|--------------------------------------|

D---9-9-9-9-7-9-7--------------|--7-7-7-7-7-7-7-9-7-----11------h-p---|

A------------------9--9-----7--|---------------------9---------7-9-7--|

E------------------------9-----|----------------------------9---------|

 

 

 

G-------------------------------------|------------------------------------|

D---9-9-9-9-9-9-9-9-7-----------------|-7-7-7-7-7-7-7-9-7--------11--------|

A----------------------9--9-----7--9--|--------------------9--9------9--9--|

E----------------------------9--------|------------------------------------|

 

 

 

G-------9----------h--p------------------|--------------------------------------|

D---7-7---7-7-7-7-9-10-9--7--------7-----|-9-9-11-9-9-9-9-9-7-7-9-7-7-----------|

A----------------------------9--------9--|--------------------------------7--9--|

E----------------------------------------|-----------------------------9--------|

 

 

G------------------------------------|--------------------|

D---9--9--9--9--9--9--9--9--7--------|--7-----------------|

A------------------------------9--9--|-----------9--------|

E------------------------------------|-----------------9--|

 

 

 

G-----------------------------------------|-----------------|

D---7-----9--9--9--9--9--7----------------|--7--------------|

A---------------------------9--9----------|-----------9-----|

E-----------------------------------9--9--|--------------9--|

 

 

 

G---------------------------------------|---19--21-----21-----19--21--19\|

D---7-----9--9--9--9--9--7--------------|7-------------------------------|

A---------------------------9--9-----7--|--------------------------------|

E---------------------------------9-----|--------------------------------|

 

 

 

G-----------p-------------------------|-------/9--9--9-----9--------------|

D---/7--9--7-0--9---------------------|7--9--7----------7-----7-----------|

A------------------9--11--9-----7--9--|--------------------------9--9--9--|

E----------------------------9--------|-----------------------------------|

 

 

 

G-----------------------------|--h--p-------h--p-------------------------------|

D--9-9-9-9-7------------------|-9-10-9-7--9-10-9-7-7------h--p---------h-p-h---|

A-------------9--11--9--------|-----------------------9-11-12-11--9---7-9-7-9--|

E-----------------------9--9--|-------------------------------------9----------|

 

 

 

G------------------------------------------|----h------h------h---------/14--14\|

D---7-10-7-10-9---10-7---7--6------h-p-h---|-7-9-10-7-9-10-7-9-10\7-------------|

A----------------------9------9---7-9-7-9--|------------------------9-9---------|

E-------------------------------9----------|------------------------------------|

 

 

G------------------------------------------------------5--|

D---7--9--10--7--9--10--7--9--10--7-----7--6--------------|

A------------------------------------9--------9-----7-----|

E------------------------------------------------9--------|

 

 

 

G---------------------------h-----------|-----9--------6-------------|

D---7--10--7--10--7--7-----6-7---/6--7--|--7-----7--4-----4---2---2--|

A-----------------------9-------9-------|----------------------------|

E---------------------------------------|----------------------------|

 

 

 

G------9--------------6-----------|-----------------------------------------|

D---7-----7--9--7--4-----4--2--2--|-7---7--9--9--9--9--9--7-----------------|

A---------------------------------|--------------------------9--9-----7--9--|

E---------------------------------|--------------------------------9--------|

 

 

G----------------------------------------|-----h--p----------------------|

D---9--9--9--9--9--9--9------------h-p---|-7--9-10-9--7-----7--9/14--14--|

A------------------------7--7-----9-7-9--|---------------9---------------|

E------------------------------9---------|-------------------------------|

 

 

 

G----------------

D---------------- 10x

A----7--9--------

E----------9/12--

 

 

 

Return to my to my Blur bass tabs page

The Tablature is Copyright its respective owners.

Sign Up For My Newsletter
Subscribe | Unsubscribe

Site Map | Disclaimer | Privacy Policy | Media Kit | Submissions/Corrections

Website © 2000-2014 mattsmusicpage.com. All rights reserved.

Legal & DMCA: Matt's Music Page has been providing lyrics and tabs in a legal way, paying royalties each year to a few organizations. Then, all lyrics and tabs were removed from the site. Now, there's a new owner to the site, which purchased it August 26, 2014, and he is in negotiation to obtain licensing from BMI at the moment. If you have a specific DMCA request -- please do not hesitate to contact me via the contact button on top. I will do my very best to keep this site fully legal.

Get our toolbar!

 

1939 LYRIC THEATRE New York PHOTO
$5.83
1939 LYRIC THEATRE New York PHOTO picture


Star Spangled Banner or Marines Hymn lyrics signed by WWII Charles W. Lindberg
$10.0
Star Spangled Banner or Marines Hymn lyrics signed by WWII Charles W. Lindberg picture


OLD LARGE HISTORIC PHOTO OF THE LYRIC THEATRE, SYDNEY c1930s, WAR BONDS BOOTH
$7.42
OLD LARGE HISTORIC PHOTO OF THE LYRIC THEATRE, SYDNEY c1930s, WAR BONDS BOOTH picture


SONG OF REVOLUTION CARD SET WITH 13 MOST FAVORED COMMUNIST SONGS LYRICS + NOTES
$24.99
SONG OF REVOLUTION CARD SET WITH 13 MOST FAVORED COMMUNIST SONGS LYRICS + NOTES picture


OLD LARGE HISTORIC PHOTO OF THE LYRIC THEATRE, SYDNEY c1930s, WAR LOANS BOOTH
$7.42
OLD LARGE HISTORIC PHOTO OF THE LYRIC THEATRE, SYDNEY c1930s, WAR LOANS BOOTH picture