Your One-Stop Source For
Music Lyrics
Bass and Guitar Tabs
and More...
Music Lyrics Bass and Guitar Tabs

 

The Tabs Are Below

Learn To Read Tab
Chords Handbook
Corrections & Additions
Get Official Tab
Blink 182 tabs @ 911Tabs

 

Title: What Went Wrong (Bonus Track on the Pants Album)

Artist: Blink 182

Album: Take Off Your Pants And Jacket

 

Tabbed By: Riley O'Brien

 

E-mail any corrections, comments, etc, to mufc_8@yahoo.com.

 

Little piece played over the chords throughout the song.

e|---------|

b|----0----|

g|------2--|

d|--2------|

a|---------|

E|---------|

 

Intro/Riff:

e|---------------------------------------|

b|---------------------------------------|

g|------------------------------5-555555-|

d|-7-777777-7-777777--4-444444--5-555555-|

a|-7-777777-7-777777--4-444444--7-777777-|

E|-5-555555-5-555555--2-222222-----------|

 

Verse:

e|-----------------------------------------------------|

b|-----------------------------------------------------|

g|---------------------------9-999999-----7-777777-----|

d|-7-777777-----4-444444-----9-999999-x2--7-777777-x2--|

a|-7-777777-x2--4-444444-x2--7-777777-----5-555555-----|

E|-5-555555-----2-222222-------------------------------|

 

Chorus:

e|------------------------------------------------------|

b|------------------------------------------------------|

g|---------------9-999999------------------7-777777-----|

d|-7-7777777-----9-999999-x2--4-444444-----7-777777-x2--|

a|-7-7777777-x2--7-777777-----4-444444-x2--5-555555-----|

E|-5-5555555------------------2-222222------------------|

 

Interlude:

e|-------------------|----|---------------------|----|-

b|-------------------|----|---------------------|----|-

g|-----9---------6---|----|-------9---------6---|----|-

d|---7---9-----7---7-|-x2-|-----7---7-----7---7-|-x2-|-

a|-------------------|----|---5---------5-------|----|-

E|-5---------5-------|----|---------------------|----|-

 

e|------------------|-------------------|-----------------|--------|

b|------------------|-------------------|-----------------|--------|

g|-----9--------6---|-----9---------6---|-----6----6----6-|-7------|

d|---7---9----7---7-|---7---7-----7---7-|---7----7----7---|-7-x12--|

a|------------------|-------------------|-----------------|-5------|

E|-5--------5-------|-7---------7-------|-5----5----5-----|--------|

 

After Interlude:

e|------------------------------------------------------------------|

b|------------------------------------------------------------------|

g|---------------7-777777------------------7-777777-----------------|

d|-7-7777777-----7-777777-X2--7-777777-----7-777777-X2--7-777777----|

a|-7-7777777-x2--5-555555-----7-777777-X6--5-555555-----7-777777-X4-|

E|-5-5555555------------------5-555555------------------5-555555----|

 

e|---------------------------|

b|---------------------------|

g|-9-999999-----7-777777-----|

d|-9-999999-x2--7-777777-x2--|

a|-7-777777-----5-555555-----|

E|---------------------------|

 

SONG ORDER...VERY IMPORTANT

---------------------------

INTRO/RIFF X2

VERSE X2

INTRO/RIFF X2

VERSE X2

CHORUS X2

INTRO/RIFF X2

VERSE X2

CHORUS X2 e|-----|

INTERLUDE b|-----|

AFTER INTERLUDE g|-----|

INTRO/RIFF X8 AND FINISH ON d|--7--|

a|--7--|

E|--5--|

 

Return to my to my Blink 182 tabs page

The Tablature is Copyright its respective owners.

 

Sign Up For My Newsletter
Subscribe | Unsubscribe

Site Map | Disclaimer | Privacy Policy | Media Kit | Submissions/Corrections

Website © 2000-2014 mattsmusicpage.com. All rights reserved.

Legal & DMCA: Matt's Music Page has been providing lyrics and tabs in a legal way, paying royalties each year to a few organizations. Then, all lyrics and tabs were removed from the site. Now, there's a new owner to the site, which purchased it August 26, 2014, and he is in negotiation to obtain licensing from BMI at the moment. If you have a specific DMCA request -- please do not hesitate to contact me via the contact button on top. I will do my very best to keep this site fully legal.

Get our toolbar!

 

VINTAGE SORRENTO MUSIC JEWELRY BOX
$45.0
VINTAGE SORRENTO MUSIC JEWELRY BOX picture


VINTAGE LACQUERED MUSIC BOX JAPAN
$25.99
VINTAGE LACQUERED MUSIC BOX JAPAN picture


Vintage Kehlsteinhaus Bavaria Germany Colorscope Cow Bell View Master Music Box
$8.99
Vintage Kehlsteinhaus Bavaria Germany Colorscope Cow Bell View Master Music Box picture


VINTAGE SCHMIDT Signed Collectible Musical Turning Clown
$9.99
VINTAGE  SCHMIDT Signed Collectible Musical Turning Clown picture


Vintage - Linen - Postcard - Stage - Radio City Music Hall - New York City
$3.75
Vintage - Linen - Postcard - Stage - Radio City Music Hall - New York City   picture