Your One-Stop Source For
Music Lyrics
Bass and Guitar Tabs
and More...
Music Lyrics Bass and Guitar Tabs

 

The Blink 182 Bass Tabs Are Below

Learn To Read Tab
Chords Handbook
Corrections & Additions
Get Official Tab
Blink 182 tabs @ 911Tabs

Title: Up All Night

Artist: Blink-182

Bassist: Mark Hoppus

 

INTRO

 

G|-----------------|-----------------|-----------------|-----------------|

D|-----------------|-----------------|-----------------|-----------------|

A|-----------------|-----------------|-----------------|-5-5-5-5-5-5-5-5-|

E|-7-7-7-7-6-6-6-6-|-5-5-5-5-5-5-5-5-|-4-4-4-4-4-4-4-4-|-----------------|

1 + 2 + 3 + 4 + 1 + 2 + 3 + 4 + 1 + 2 + 3 + 4 + 1 + 2 + 3 + 4 +

 

G|-----------------|-----------------|-----------------|-----------------|

D|-----------------|-----------------|-----------------|-----------------|

A|-----------------|-----------------|-----------------|-5-5-5-5-5-5-5-5-|

E|-7-7-7-7-6-6-6-6-|-5-5-5-5-5-5-5-5-|-4-4-4-4-4-4-4-4-|-----------------|

1 + 2 + 3 + 4 + 1 + 2 + 3 + 4 + 1 + 2 + 3 + 4 + 1 + 2 + 3 + 4 +

 

G|-----------------|-----------------|-----------------|-----------------|

D|-----------------|-----------------|-----------------|-----------------|

A|-----------------|-----------------|-----------------|-----------------|

E|-7-7-7-7-6-6-6-6-|-5-5-5-5-5-5-5-5-|-4-4-4-4-4-4-4-4-|-3-3-3-3-3-3-3-3-|

1 + 2 + 3 + 4 + 1 + 2 + 3 + 4 + 1 + 2 + 3 + 4 + 1 + 2 + 3 + 4 +

 

G|-----------------|-----------------|-----------------|-----------------|

D|-----------------|-----------------|-----------------|-----------------|

A|-------7-7-7-----|-----------------|-------7-7-7-----|-----------------|

E|-5-4-0-------5-4-|-0-6/7-7-6-6-5-5-|-5-4-0-------5-4-|-0-6/7-7-6-6-5-5-|

1 + 2 + 3 + 4 + 1 + 2 + 3 + 4 + 1 + 2 + 3 + 4 + 1 + 2 + 3 + 4 +

 

G|-----------------|-----------------|-----------------|-----------------||

D|-----------------|-----------------|-----------------|-----------------||

A|-------7-7-7-----|-----------------|-------7-7-7-----|-----------------||

E|-5-4-0-------5-4-|-0-6/7-7-6-6-5-5-|-5-4-0-------5-4-|-0-6/7-7-6-6-5-5-||

1 + 2 + 3 + 4 + 1 + 2 + 3 + 4 + 1 + 2 + 3 + 4 + 1 + 2 + 3 + 4 +

 

G|-------------------------||

D|-------------------------||

A|-------------------------||

E|-------------------------||

1 + 2 + 3 + 4 + 5 + 6 +

 

VERSE

 

G|-----------------|-----------------|-----------------|-----------------|

D|-----------------|-----------------|-----------------|-----------------|

A|-----------------|-----------------|-----------------|-----------------|

E|-----------------|-----------------|-----------------|-----------------|

1 + 2 + 3 + 4 + 1 + 2 + 3 + 4 + 1 + 2 + 3 + 4 + 1 + 2 + 3 + 4 +

 

G|-----------------|-----------------|-----------------|-----------------|

D|-----------------|-----------------|-----------------|-7---------------|

A|-----------------|-----------------|-----------------|-5---------------|

E|-5~--------------|(5)--------------|-0---------------|-----------------|

1 + 2 + 3 + 4 + 1 + 2 + 3 + 4 + 1 + 2 + 3 + 4 + 1 + 2 + 3 + 4 +

 

G|-----------------|-----------------|-----------------|-----------------|

D|-----------------|-----------------|-----------------|-----------------|

A|-----------------|-----------------|-----------------|-5-5---5-5-5-5---|

E|-5-5---5-5-5---5-|-5-5---5-5-7---7-|-0-0---0-0-0---0-|-----------------|

1 + 2 + 3 + 4 + 1 + 2 + 3 + 4 + 1 + 2 + 3 + 4 + 1 + 2 + 3 + 4 +

 

G|-----------------|-----------------|-----------------|-----------------||

D|-----------------|-----------------|-----------------|-----------------||

A|-----------------|-----------------|-----------------|-5-5-5-5-5-5-5-5-||

E|-5-5---5-5-5---5-|-5-5---5-5-7-7-7-|-0-0---0-0-0---0-|-----------------||

1 + 2 + 3 + 4 + 1 + 2 + 3 + 4 + 1 + 2 + 3 + 4 + 1 + 2 + 3 + 4 +

 

PRE-CHORUS

 

G|-----------------|-----------------|-------------------------|-------------------------|

D|-----------------|-----------------|-------------------------|-------------------------|

A|-9-9-9-9-9-9-9-9-|-9-9-9-9-9-9-9-9-|-11-11-11-11-11-11-11-11-|-11-11-11-11-11-11-11-11-|

E|-----------------|-----------------|-------------------------|-------------------------|

1 + 2 + 3 + 4 + 1 + 2 + 3 + 4 + 1 + 2 + 3 + 4 + 1 + 2 + 3 + 4 +

 

G|-----------------|-----------------|-----------------|-----------------|

D|-----------------|-----------------|-----------------|-----------------|

A|-0-0-0-0-0-0-0-0-|-0-0-0-0-0-0-0-0-|-----------------|-----------------|

E|-----------------|-----------------|-0-0-0-0-0-0-0-0-|-0-0-0-0-0-0-0-0-|

1 + 2 + 3 + 4 + 1 + 2 + 3 + 4 + 1 + 2 + 3 + 4 + 1 + 2 + 3 + 4 +

 

G|-----------------|-----------------|-----------------|-----------------||

D|-----------------|-----------------|-----------------|-----------------||

A|-----------------|-----------------|-5-5-5-5-5-5-5-5-|-5-5-5-5-5-5-5-5-||

E|-2-2-2-2-2-2-2-2-|-2-2-2-2-2-2-2-2-|-----------------|-----------------||

1 + 2 + 3 + 4 + 1 + 2 + 3 + 4 + 1 + 2 + 3 + 4 + 1 + 2 + 3 + 4 +

 

CHORUS

 

G|-----------------|-----------------|-----------------|-----------------|

D|-7~--------------|(7)--------------|-9~--------------|-7~--------------|

A|-0~--------------|(0)--------------|-7~--------------|-5~--------------|

E|-----------------|-----------------|-----------------|-----------------|

1 + 2 + 3 + 4 + 1 + 2 + 3 + 4 + 1 + 2 + 3 + 4 + 1 + 2 + 3 + 4 +

 

G|-----------------|-----------------|-----------------|-----------------||

D|-7~--------------|(7)--------------|-9~--------------|-7~--------------||

A|-0~--------------|(0)--------------|-7~--------------|-5~--------------||

E|-----------------|-----------------|-----------------|-----------------||

1 + 2 + 3 + 4 + 1 + 2 + 3 + 4 + 1 + 2 + 3 + 4 + 1 + 2 + 3 + 4 +

 

INTERLUDE

 

G|-----------------|-----------------|-----------------|-----------------|

D|-----------------|-----------------|-----------------|-----------------|

A|-----------------|-----------------|-------7-7-7-----|-----------------|

E|-----------------|-----------------|-5-4-0-------5-4-|-0-6/7-7-6-6-5-5-|

1 + 2 + 3 + 4 + 1 + 2 + 3 + 4 + 1 + 2 + 3 + 4 + 1 + 2 + 3 + 4 +

 

G|-----------------|-----------------|-----------------|-----------------||

D|-----------------|-----------------|-----------------|-----------------||

A|-------7-7-7-----|-----------------|-------7-7-7-----|-----------------||

E|-5-4-0-------5-4-|-0-6/7-7-6-6-5-5-|-5-4-0-------5-4-|-0-6/7-7-6-6-5-5-||

1 + 2 + 3 + 4 + 1 + 2 + 3 + 4 + 1 + 2 + 3 + 4 + 1 + 2 + 3 + 4 +

 

VERSE

 

G|-----------------|-----------------|-----------------|-----------------|

D|-----------------|-----------------|-----------------|-----------------|

A|-----------------|-----------------|-----------------|-5-5-5-5-5-5-5-5-|

E|-5-5-5-5-5-5-5-5-|-5-5-5-5-5-5-5-5-|-2-2-2-2-2-2-2-2-|-----------------|

1 + 2 + 3 + 4 + 1 + 2 + 3 + 4 + 1 + 2 + 3 + 4 + 1 + 2 + 3 + 4 +

 

G|-----------------|-----------------|-----------------|-----------------|

D|-----------------|-----------------|-----------------|-----------------|

A|-----------------|-----------------|-----------------|-5-5-5-5-5-5-5-5-|

E|-5-5-5-5-5-5-5-5-|-5-5-5-5-5-5-5-5-|-2-2-2-2-2-2-2-2-|-----------------|

1 + 2 + 3 + 4 + 1 + 2 + 3 + 4 + 1 + 2 + 3 + 4 + 1 + 2 + 3 + 4 +

 

G|-----------------|-----------------|-----------------|-----------------|

D|-----------------|-----------------|-----------------|-----------------|

A|-----------------|-----------------|-----------------|-5-5-5-5-5-5-5-5-|

E|-5-5-5-5-5-5-5-5-|-5-5-5-5-5-7-----|-0-0-0-0-0-0-0-0-|-----------------|

1 + 2 + 3 + 4 + 1 + 2 + 3 + 4 + 1 + 2 + 3 + 4 + 1 + 2 + 3 + 4 +

 

G|-----------------|-----------------|-----------------|-----------------||

D|-----------------|-----------------|-----------------|-----------------||

A|-----------------|-----------------|-----------------|-5-5-5-5-5-5-5-5-||

E|-5-5-5-5-5-5-5-5-|-5-5-5-5-5-7-7-7-|-0-0-0-0-0-0-0-0-|-----------------||

1 + 2 + 3 + 4 + 1 + 2 + 3 + 4 + 1 + 2 + 3 + 4 + 1 + 2 + 3 + 4 +

 

PRE-CHORUS

 

G|-----------------|-----------------|-------------------------|-------------------------|

D|-----------------|-----------------|-------------------------|-------------------------|

A|-9-9-9-9-9-9-9-9-|-9-9-9-9-9-9-9-9-|-11-11-11-11-11-11-11-11-|-11-11-11-11-11-11-11-11-|

E|-----------------|-----------------|-------------------------|-------------------------|

1 + 2 + 3 + 4 + 1 + 2 + 3 + 4 + 1 + 2 + 3 + 4 + 1 + 2 + 3 + 4 +

 

G|-----------------|-----------------|-----------------|-----------------|

D|-----------------|-----------------|-----------------|-----------------|

A|-0-0-0-0-0-0-0-0-|-0-0-0-0-0-0-0-0-|-----------------|-----------------|

E|-----------------|-----------------|-0-0-0-0-0-0-0-0-|-0-0-0-0-0-0-0-0-|

1 + 2 + 3 + 4 + 1 + 2 + 3 + 4 + 1 + 2 + 3 + 4 + 1 + 2 + 3 + 4 +

 

G|-----------------|-----------------|-----------------|-----------------||

D|-----------------|-----------------|-----------------|-----------------||

A|-----------------|-----------------|-5-5-5-5-5-5-5-5-|-5-5-5-5-5-5-5-5-||

E|-2-2-2-2-2-2-2-2-|-2-2-2-2-2-2-2-2-|-----------------|-----------------||

1 + 2 + 3 + 4 + 1 + 2 + 3 + 4 + 1 + 2 + 3 + 4 + 1 + 2 + 3 + 4 +

 

CHORUS

 

G|-----------------|-----------------|-----------------|-----------------|

D|-7~--------------|(7)--------------|-9~--------------|-7~--------------|

A|-0~--------------|(0)--------------|-7~--------------|-5~--------------|

E|-----------------|-----------------|-----------------|-----------------|

1 + 2 + 3 + 4 + 1 + 2 + 3 + 4 + 1 + 2 + 3 + 4 + 1 + 2 + 3 + 4 +

 

G|-----------------|-----------------|-----------------|-----------------|

D|-7~--------------|(7)--------------|-9~--------------|-7~--------------|

A|-0~--------------|(0)--------------|-7~--------------|-5~--------------|

E|-----------------|-----------------|-----------------|-----------------|

1 + 2 + 3 + 4 + 1 + 2 + 3 + 4 + 1 + 2 + 3 + 4 + 1 + 2 + 3 + 4 +

 

G|-----------------|-----------------|-----------------|-----------------|

D|-7~--------------|(7)--------------|-9~--------------|-7~--------------|

A|-0~--------------|(0)--------------|-7~--------------|-5~--------------|

E|-----------------|-----------------|-----------------|-----------------|

1 + 2 + 3 + 4 + 1 + 2 + 3 + 4 + 1 + 2 + 3 + 4 + 1 + 2 + 3 + 4 +

 

G|-----------------|-----------------|-----------------|-----------------|

D|-7~--------------|(7)--------------|-9~--------------|-7~--------------|

A|-0~--------------|(0)--------------|-7~--------------|-5~--------------|

E|-----------------|-----------------|-----------------|-----------------|

1 + 2 + 3 + 4 + 1 + 2 + 3 + 4 + 1 + 2 + 3 + 4 + 1 + 2 + 3 + 4 +

 

G|-----------------|-----------------||

D|-----------------|-----------------||

A|-----------------|-----------------||

E|-----------------|-----------------||

1 + 2 + 3 + 4 + 1 + 2 + 3 + 4 +

 

OUTRO

 

G|-----------------|-----------------|-----------------|-----------------|

D|-----------------|-----------------|-----------------|-----------------|

A|-------7-7-7-----|-----------------|-------7-7-7-----|-----------------|

E|-5-4-0-------5-4-|-0-6/7-7-6-6-5-5-|-5-4-0-------5-4-|-0-6/7-7-6-6-5-5-|

1 + 2 + 3 + 4 + 1 + 2 + 3 + 4 + 1 + 2 + 3 + 4 + 1 + 2 + 3 + 4 +

 

G|-----------------|-----------------|-----------------|-----------------|

D|-----------------|-----------------|-----------------|-----------------|

A|-------7-7-7-----|-----------------|-------7-7-7-----|-----------------|

E|-5-4-0-------5-4-|-0-6/7-7-6-6-5-5-|-5-4-0-------5-4-|-0-6/7-7-6-6-5-5-|

1 + 2 + 3 + 4 + 1 + 2 + 3 + 4 + 1 + 2 + 3 + 4 + 1 + 2 + 3 + 4 +

 

G|-----------------|-----------------|-----------------|-----------------|

D|-----------------|-----------------|-----------------|-----------------|

A|-------7-7-7-----|-----------------|-------7-7-7-----|-----------------|

E|-5-4-0-------5-4-|-0-6/7-7-6-6-5-5-|-5-4-0-------5-4-|-0-6/7-7-6-6-5-5-|

1 + 2 + 3 + 4 + 1 + 2 + 3 + 4 + 1 + 2 + 3 + 4 + 1 + 2 + 3 + 4 +

 

G|-----------------|-----------------|-----------------|-----------------||

D|-----------------|-----------------|-----------------|-----------------||

A|-------7-7-7-----|-----------------|-------7-7-7-----|-----------------||

E|-5-4-0-------5-4-|-0-6/7-7-6-6-5-5-|-5-4-0-------5-4-|-0-6/7-7-6-6-5-5-||

1 + 2 + 3 + 4 + 1 + 2 + 3 + 4 + 1 + 2 + 3 + 4 + 1 + 2 + 3 + 4 +

Return to my to my Blink 182 Bass Tabs page

The Tablature is Copyright its respective owners.

 

Sign Up For My Newsletter
Subscribe | Unsubscribe

Site Map | Disclaimer | Privacy Policy | Media Kit | Submissions/Corrections

Website © 2000-2014 mattsmusicpage.com. All rights reserved.

Legal & DMCA: Matt's Music Page has been providing lyrics and tabs in a legal way, paying royalties each year to a few organizations. Then, all lyrics and tabs were removed from the site. Now, there's a new owner to the site, which purchased it August 26, 2014, and he is in negotiation to obtain licensing from BMI at the moment. If you have a specific DMCA request -- please do not hesitate to contact me via the contact button on top. I will do my very best to keep this site fully legal.

Get our toolbar!