Your One-Stop Source For
Music Lyrics
Bass and Guitar Tabs
and More...
Music Lyrics Bass and Guitar Tabs

 

The Tabs Are Below

Learn To Read Tab
Chords Handbook
Corrections & Additions
Get Official Tab
Blink 182 tabs @ 911Tabs

 

----------------------------------------------------------------------

----------------------------------------------------------------------

TIME - Blink-182

----------------------------------------------------------------------

 

By:Gboyega(Disembowl@aol.com)

 

Intro

e|--------------------------------------------------------------------|

B|--------------------------------------------------------------------|

G|---------8\9-9-9-9--10\11-11-11-11--6\7-7-7-7-----------------------|

D|-7--7-7--8\9-9-9-9--10\11-11-11-11--6\7-7-7-7--6\7------------------|

A|-7--7-7--6\7-7-7-7--8-\9--9--9--9---4\5-5-5-5--6\7------------------|

E|-5--5-5----------------------------------------4\5------------------|

 

Ska Style

e|-5-5-5-5-5--x-x--5-5-5-5-5--x--7-7-7-7-7--x-x--5-5-5-5-5------------|

B|-5-5-5-5-5--x-x--5-5-5-5-5--x--7-7-7-7-7--x-x--5-5-5-5-5------------|

G|-6-6-6-6-6--x-x--7-7-7-7-7--x--9-9-9-9-9--x-x--7-7-7-7-7------------|

D|-7-7-7-7-7--x-x--7-7-7-7-7--x--9-9-9-9-9--x-x--7-7-7-7-7------------|

A|-7-7-7-7-7--x-x--5-5-5-5-5--x--7-7-7-7-7--x-x--5-5-5-5-5------------|

E|-5-5-5-5-5----------------------------------------------------------|

 

Double Time

e|--------------------------------------------------------------------|

B|--------------------------------------------------------------------|

G|---------8\9-9-9-9--10\11-11-11-11--6\7-7-7-7-----------------------|

D|-7--7-7--8\9-9-9-9--10\11-11-11-11--6\7-7-7-7--6\7------------------|

A|-7--7-7--6\7-7-7-7--8-\9--9--9--9---4\5-5-5-5--6\7------------------|

E|-5--5-5----------------------------------------4\5------------------|

 

Verse

e|--------------------------------------------------------------------|

B|--------------------------------------------------------------------|

G|-------9-9-9-9-9-9-------7-7-7-7-7-7--------------------------------|

D|--7-7--9-9-9-9-9-9--4-4--7-7-7-7-7-7--------------------------------|

A|--7-7--7-7-7-7-7-7--4-4--5-5-5-5-5-5--------------------------------|

E|--5-5---------------2-2---------------------------------------------|

 

Chorus

e|--------------------------------------------------------------------|

B|--------------------------------------------------------------------|

G|---------8\9-9-9-9--10\11-11-11-11--6\7-7-7-7-----------------------|

D|-7--7-7--8\9-9-9-9--10\11-11-11-11--6\7-7-7-7--6\7------------------|

A|-7--7-7--6\7-7-7-7--8-\9--9--9--9---4\5-5-5-5--6\7------------------|

E|-5--5-5----------------------------------------4\5------------------|

 

=========================================================================

 

Return to my to my Blink 182 tabs page

The Tablature is Copyright its respective owners.

 

Sign Up For My Newsletter
Subscribe | Unsubscribe

Site Map | Disclaimer | Privacy Policy | Media Kit | Submissions/Corrections

Website © 2000-2014 mattsmusicpage.com. All rights reserved.

Legal & DMCA: Matt's Music Page has been providing lyrics and tabs in a legal way, paying royalties each year to a few organizations. Then, all lyrics and tabs were removed from the site. Now, there's a new owner to the site, which purchased it August 26, 2014, and he is in negotiation to obtain licensing from BMI at the moment. If you have a specific DMCA request -- please do not hesitate to contact me via the contact button on top. I will do my very best to keep this site fully legal.

Get our toolbar!