Your One-Stop Source For
Music Lyrics
Bass and Guitar Tabs
and More...
Music Lyrics Bass and Guitar Tabs

 

The Tabs Are Below

Learn To Read Tab
Chords Handbook
Corrections & Additions
Get Official Tab
Blink 182 tabs @ 911Tabs

 

Song:Story of a loney guy :: corrected version

 

Band:Blink-182

 

Album:Take your pants off and jacket

 

tabbed by:Danny Rubenstein/new masterbasser

 

 

Intro-can hear barley in back of keyboard

 

G:---9---9---9------9---9---9-------------------------------------------------

 

D:7---7---7------9---9---9--------11---11---11--11/7-----7---7---7---7/9/11

 

A:-------------------------------9----9----9------0--------5---5---5----------

 

E:-------------------------------------------------------------------------------

 

 

Verse *(7) 7 times 2nd part

G:--------------------------------]-[---------------------------------

 

D:--------------------------------]-[---------------------------------

 

A:----------------4(7)---5(7)----]-[---------------5(7)---7(7)-------

E:--5(7)---7(7)------------------]-[---4(7)--5(7)---------------------

 

 

Chorus-

G:----------------------------------------------------------

 

D:-------3(7)--------5(7)-----------------------------------

 

A:-0(7)-----------------------------------------------------

 

E:------------3(7)-------------------------------------------

 

thats is simple..great cd.. email me on other songs of this cd..rpunkrawk@aol.com

 

Return to my to my Blink 182 tabs page

The Tablature is Copyright its respective owners.

 

Sign Up For My Newsletter
Subscribe | Unsubscribe

Site Map | Disclaimer | Privacy Policy | Media Kit | Submissions/Corrections

Website © 2000-2014 mattsmusicpage.com. All rights reserved.

Legal & DMCA: Matt's Music Page has been providing lyrics and tabs in a legal way, paying royalties each year to a few organizations. Then, all lyrics and tabs were removed from the site. Now, there's a new owner to the site, which purchased it August 26, 2014, and he is in negotiation to obtain licensing from BMI at the moment. If you have a specific DMCA request -- please do not hesitate to contact me via the contact button on top. I will do my very best to keep this site fully legal.

Get our toolbar!