Your One-Stop Source For
Music Lyrics
Bass and Guitar Tabs
and More...
Music Lyrics Bass and Guitar Tabs

 

The Tabs Are Below

Learn To Read Tab
Chords Handbook
Corrections & Additions
Get Official Tab
Blink 182 tabs @ 911Tabs

 

Stay Together For The Kids / Blink 182

Easy, and simple, for comments mail dizzy_gopher@hotmail.com

Fixed by ABC kroqn3eb15@aol.com

 

Key-*=stop ring

E :----------------|----------------|----------------|----------------|

B :----------------|----------------|----------------|----------------|

G :----------------|----------------|----------------|----------------|

D :--0---7-0---4-0-|--0---7-0---4-0-|--0---4-0---5-0-|--2---4-5-4-2-0-|

A :5----5----5-----|4----4----4-----|2----2----2-----|0---0-----------|

E :----------------|----------------|----------------|----------------|

 

E :----------------|----------------|----------------|----------------|

B :----------------|----------------|----------------|----------------|

G :----------------|----------------|----------------|----------------|

D :--0---7-0---4-0-|--0---7-0---4-0-|--0---4-0---5-0-|--2---4-5-4-2-0-|

A :5----5----5-----|4----4----4-----|2----2----2-----|0---0-----------|

E :----------------|----------------|----------------|----------------|

 

"It's hard to wa ke up..."

E :----------------|----------------|----------------|----------------|

B :----------------|----------------|----------------|----------------|

G :----7-------7---|----7-------7---|----------------|----------------|

D :----7-------7---|----7-------7---|----9-------9---|----9-------9---|

A :5-5---5-5-5---5-|5-5---5-5-5---5-|----9-------9---|----9-------9---|

E :----------------|----------------|7-7---7-7-7---7-|7-7---7-7-7---7-|

 

 

E :----------------|----------------|----------------|----------------|

B :----------------|----------------|----------------|----------------|

G :----------------|----------------|----9-------9---|----7-------7---|

D :----7-------7---|----7-------7---|----9-------9---|----7-------7---|

A :----7-------7---|----7-------7---|7-7---7-7-7---7-|5-5---5-5-5---5-|

E :5-5---5-5-5---5-|5-5---5-5-5---5-|----------------|----------------|

 

 

E :----------------|----------------|----------------|----------------|

B :----------------|----------------|----------------|----------------|

G :----7-------7---|----7-------7---|----------------|----------------|

D :----7-------7---|----7-------7---|----9-------9---|----9-------9---|

A :5-5---5-5-5---5-|5-5---5-5-5---5-|----9-------9---|----9-------9---|

E :----------------|----------------|7-7---7-7-7---7-|7-7---7-7-7---7-|

 

 

E :----------------|----------------|----------------|----------------|

B :----------------|----------------|----------------|----------------|

G :----------------|----------------|----9-------9---|----7-------7---|

D :----7-------7---|----7-------7---|----9-------9---|----7-------7---|

A :----7-------7---|----7-------7---|7-7---7-7-7---7-|5-5---5-5-5---5-|

E :5-5---5-5-5---5-|5-5---5-5-5---5-|----------------|----------------|

 

"So here's your holiday..."

E :----------------|----------------|----------------|----------------|

B :----------------|----------------|----------------|----------------|

G :----------------|----------------|----------------|----------------|

D :5-5-5-5-5-5-5-5-|5-5-5-5-5-5-5-5-|4-4-4-4-4-4-4-4-|4-4-4-4-4-4-4-4-|

A :5-5-5-5-5-5-5-5-|5-5-5-5-5-5-5-5-|4-4-4-4-4-4-4-4-|4-4-4-4-4-4-4-4-|

E :3-3-3-3-3-3-3-3-|3-3-3-3-3-3-3-3-|2-2-2-2-2-2-2-2-|2-2-2-2-2-2-0-2-|

 

 

E :----------------|----------------|----------------|----------------|

B :----------------|----------------|----------------|----------------|

G :----------------|----------------|----------------|----------------|

D :5-5-5-5-5-5-5-5-|5-5-5-5-5-5-5-5-|4-4-4-4-4-4-4-4-|4-4-4-4-4-4-4-4-|

A :5-5-5-5-5-5-5-5-|5-5-5-5-5-5-5-5-|4-4-4-4-4-4-4-4-|4-4-4-4-4-4-4-4-|

E :3-3-3-3-3-3-3-3-|3-3-3-3-3-3-3-3-|2-2-2-2-2-2-2-2-|2-2-2-2-2-2-0-2-|

 

 

E :----------------|----------------|----------------|----------------|

B :----------------|----------------|----------------|----------------|

G :----------------|----------------|----------------|----------------|

D :5-5-5-5-5-5-5-5-|5-5-5-5-5-5-5-5-|4-4-4-4-4-4-4-4-|4-4-4-4-4-4-4-4-|

A :5-5-5-5-5-5-5-5-|5-5-5-5-5-5-5-5-|4-4-4-4-4-4-4-4-|4-4-4-4-4-4-4-4-|

E :3-3-3-3-3-3-3-3-|3-3-3-3-3-3-3-3-|2-2-2-2-2-2-2-2-|2-2-2-2-2-2-0-2-|

 

 

E :----------------|----------------|----------------|----------------|

B :----------------|----------------|----------------|----------------|

G :----------------|----------------|----------------|----------------|

D :5-5-5-5-5-5-5-5-|5-5-5-5-5-5-5-5-|4-4-4-4-4-4-4-4-|4-4-4-4-4-4-4-4-|

A :5-5-5-5-5-5-5-5-|5-5-5-5-5-5-5-5-|4-4-4-4-4-4-4-4-|4-4-4-4-4-4-4-4-|

E :3-3-3-3-3-3-3-3-|3-3-3-3-3-3-3-3-|2-2-2-2-2-2-2-2-|2-2-2-2-2-2-0-2-|

 

 

E :----------------|----------------|----------------|----------------|

B :----------------|----------------|----------------|----------------|

G :----------------|----------------|----------------|----------------|

D :--0---7-0---4-0-|--0---7-0---4-0-|--0---4-0---5-0-|--2---4-5-4-2-0-|

A :5----5----5-----|4----4----4-----|2----2----2-----|0---0-----------|

E :----------------|----------------|----------------|----------------|

 

 

E :----------------|----------------|----------------|----------------|

B :----------------|----------------|----------------|----------------|

G :----------------|----------------|----------------|----------------|

D :--0---7-0---4-0-|--0---7-0---4-0-|--0---4-0---5-0-|--2---4-5-4-2-0-|

A :5----5----5-----|4----4----4-----|2----2----2-----|0---0-----------|

E :----------------|----------------|----------------|----------------|

 

Verse 2

E :----------------|----------------|----------------|----------------|

B :----------------|----------------|----------------|----------------|

G :----7-------7---|----7-------7---|----------------|----------------|

D :----7-------7---|----7-------7---|----9-------9---|----9-------9---|

A :5-5---5-5-5---5-|5-5---5-5-5---5-|----9-------9---|----9-------9---|

E :----------------|----------------|7-7---7-7-7---7-|7-7---7-7-7---7-|

 

 

E :----------------|----------------|----------------|----------------|

B :----------------|----------------|----------------|----------------|

G :----------------|----------------|----9-------9---|----7-------7---|

D :----7-------7---|----7-------7---|----9-------9---|----7-------7---|

A :----7-------7---|----7-------7---|7-7---7-7-7---7-|5-5---5-5-5---5-|

E :5-5---5-5-5---5-|5-5---5-5-5---5-|----------------|----------------|

 

 

E :----------------|----------------|----------------|----------------|

B :----------------|----------------|----------------|----------------|

G :----7-------7---|----7-------7---|----------------|----------------|

D :----7-------7---|----7-------7---|----9-------9---|----9-------9---|

A :5-5---5-5-5---5-|5-5---5-5-5---5-|----9-------9---|----9-------9---|

E :----------------|----------------|7-7---7-7-7---7-|7-7---7-7-7---7-|

 

 

E :----------------|----------------|----------------|----------------|

B :----------------|----------------|----------------|----------------|

G :----------------|----------------|----9-------9---|----7-------7---|

D :----7-------7---|----7-------7---|----9-------9---|----7-------7---|

A :----7-------7---|----7-------7---|7-7---7-7-7---7-|5-5---5-5-5---5-|

E :5-5---5-5-5---5-|5-5---5-5-5---5-|----------------|----------------|

 

 

E :----------------|----------------|----------------|----------------|

B :----------------|----------------|----------------|----------------|

G :----------------|----------------|----------------|----------------|

D :5-5-5-5-5-5-5-5-|5-5-5-5-5-5-5-5-|4-4-4-4-4-4-4-4-|4-4-4-4-4-4-4-4-|

A :5-5-5-5-5-5-5-5-|5-5-5-5-5-5-5-5-|4-4-4-4-4-4-4-4-|4-4-4-4-4-4-4-4-|

E :3-3-3-3-3-3-3-3-|3-3-3-3-3-3-3-3-|2-2-2-2-2-2-2-2-|2-2-2-2-2-2-0-2-|

 

 

E :----------------|----------------|----------------|----------------|

B :----------------|----------------|----------------|----------------|

G :----------------|----------------|----------------|----------------|

D :5-5-5-5-5-5-5-5-|5-5-5-5-5-5-5-5-|4-4-4-4-4-4-4-4-|4-4-4-4-4-4-4-4-|

A :5-5-5-5-5-5-5-5-|5-5-5-5-5-5-5-5-|4-4-4-4-4-4-4-4-|4-4-4-4-4-4-4-4-|

E :3-3-3-3-3-3-3-3-|3-3-3-3-3-3-3-3-|2-2-2-2-2-2-2-2-|2-2-2-2-2-2-0-2-|

 

 

E :----------------|----------------|----------------|----------------|

B :----------------|----------------|----------------|----------------|

G :----------------|----------------|----------------|----------------|

D :5-5-5-5-5-5-5-5-|5-5-5-5-5-5-5-5-|4-4-4-4-4-4-4-4-|4-4-4-4-4-4-4-4-|

A :5-5-5-5-5-5-5-5-|5-5-5-5-5-5-5-5-|4-4-4-4-4-4-4-4-|4-4-4-4-4-4-4-4-|

E :3-3-3-3-3-3-3-3-|3-3-3-3-3-3-3-3-|2-2-2-2-2-2-2-2-|2-2-2-2-2-2-0-2-|

 

 

E :----------------|----------------|----------------|----------------|

B :----------------|----------------|----------------|----------------|

G :----------------|----------------|----------------|----------------|

D :5-5-5-5-5-5-5-5-|5-5-5-5-5-5-5-5-|4-4-4-4-4-4-4-4-|4-4-4-4-4-4-4-4-|

A :5-5-5-5-5-5-5-5-|5-5-5-5-5-5-5-5-|4-4-4-4-4-4-4-4-|4-4-4-4-4-4-4-4-|

E :3-3-3-3-3-3-3-3-|3-3-3-3-3-3-3-3-|2-2-2-2-2-2-2-2-|2-2-2-2-2-2-0-2-|

 

Big Long Break.............(there is more)

E :----------------|----------------|----------------|----------------|

B :----------------|----------------|----------------|----------------|

G :----------------|----------------|----------------|----------------|

D :*---------------|----------------|----------------|----------------|

A :*---------------|----------------|----------------|----------------|

E :*---------------|----------------|----------------|----------------|

 

 

E :----------------|----------------|----------------|----------------|

B :----------------|----------------|----------------|----------------|

G :----------------|----------------|----------------|----------------|

D :----------------|----------------|----------------|----------------|

A :----------------|----------------|----------------|----------------|

E :----------------|----------------|----------------|----------------|

 

 

E :----------------|----------------|----------------|----------------|

B :----------------|----------------|----------------|----------------|

G :----------------|----------------|----------------|----------------|

D :----------------|----------------|----------------|----------------|

A :----------------|----------------|----------------|----------------|

E :----------------|----------------|----------------|----------------|

 

 

E :----------------|----------------|----------------|--------24-------|

B :----------------|----------------|----------------|-----------------|

G :----------------|----------------|----------------|-----------------|

D :----------------|----------------|----------------|-----------------|

A :----------------|----------------|----------------|-----------------|

E :----------------|----------------|----------------|-----------------|

 

 

E :*---------------|----------------|----------------|----------------|

B :----------------|----------------|----------------|----------------|

G :----------------|----------------|----------------|----------------|

D :5-5-5-5-5-5-5-5-|5-5-5-5-5-5-5-5-|4-4-4-4-4-4-4-4-|4-4-4-4-4-4-4-4-|

A :5-5-5-5-5-5-5-5-|5-5-5-5-5-5-5-5-|4-4-4-4-4-4-4-4-|4-4-4-4-4-4-4-4-|

E :3-3-3-3-3-3-3-3-|3-3-3-3-3-3-3-3-|2-2-2-2-2-2-2-2-|2-2-2-2-2-2-0-2-|

 

 

E :----------------|----------------|----------------|----------------|

B :----------------|----------------|----------------|----------------|

G :----------------|----------------|----------------|----------------|

D :5-5-5-5-5-5-5-5-|5-5-5-5-5-5-5-5-|4-4-4-4-4-4-4-4-|4-4-4-4-4-4-4-4-|

A :5-5-5-5-5-5-5-5-|5-5-5-5-5-5-5-5-|4-4-4-4-4-4-4-4-|4-4-4-4-4-4-4-4-|

E :3-3-3-3-3-3-3-3-|3-3-3-3-3-3-3-3-|2-2-2-2-2-2-2-2-|2-2-2-2-2-2-0-2-|

 

 

E :----------------|----------------|----------------|----------------|

B :----------------|----------------|----------------|----------------|

G :----------------|----------------|----------------|----------------|

D :5-5-5-5-5-5-5-5-|5-5-5-5-5-5-5-5-|4-4-4-4-4-4-4-4-|4-4-4-4-4-4-4-4-|

A :5-5-5-5-5-5-5-5-|5-5-5-5-5-5-5-5-|4-4-4-4-4-4-4-4-|4-4-4-4-4-4-4-4-|

E :3-3-3-3-3-3-3-3-|3-3-3-3-3-3-3-3-|2-2-2-2-2-2-2-2-|2-2-2-2-2-2-0-2-|

 

 

E :----------------|----------------|----------------|----------------|

B :----------------|----------------|----------------|----------------|

G :----------------|----------------|----------------|----------------|

D :5-5-5-5-5-5-5-5-|5-5-5-5-5-5-5-5-|4-4-4-4-4-4-4-4-|4-4-4-4-4-4-4-4-|

A :5-5-5-5-5-5-5-5-|5-5-5-5-5-5-5-5-|4-4-4-4-4-4-4-4-|4-4-4-4-4-4-4-4-|

E :3-3-3-3-3-3-3-3-|3-3-3-3-3-3-3-3-|2-2-2-2-2-2-2-2-|2-2-2-2-2-2-0-2-|

 

 

E :----------------|----------------|----------------|----------------|

B :----------------|----------------|----------------|----------------|

G :----------------|----------------|----------------|----------------|

D :5-5-5-5-5-5-5-5-|5-5-5-5-5-5-5-5-|4-4-4-4-4-4-4-4-|4-4-4-4-4-4-4-4-|

A :5-5-5-5-5-5-5-5-|5-5-5-5-5-5-5-5-|4-4-4-4-4-4-4-4-|4-4-4-4-4-4-4-4-|

E :3-3-3-3-3-3-3-3-|3-3-3-3-3-3-3-3-|2-2-2-2-2-2-2-2-|2-2-2-2-2-2-0-2-|

 

 

E :----------------|----------------|----------------|----------------|

B :----------------|----------------|----------------|----------------|

G :----------------|----------------|----------------|----------------|

D :5-5-5-5-5-5-5-5-|5-5-5-5-5-5-5-5-|4-4-4-4-4-4-4-4-|4-4-4-4-4-4-4-4-|

A :5-5-5-5-5-5-5-5-|5-5-5-5-5-5-5-5-|4-4-4-4-4-4-4-4-|4-4-4-4-4-4-4-4-|

E :3-3-3-3-3-3-3-3-|3-3-3-3-3-3-3-3-|2-2-2-2-2-2-2-2-|2-2-2-2-2-2-0-2-|

 

 

E :----------------|----------------|----------------|----------------|

B :----------------|----------------|----------------|----------------|

G :----------------|----------------|----------------|----------------|

D :5-5-5-5-5-5-5-5-|5-5-5-5-5-5-5-5-|4-4-4-4-4-4-4-4-|4-4-4-4-4-4-4-4-|

A :5-5-5-5-5-5-5-5-|5-5-5-5-5-5-5-5-|4-4-4-4-4-4-4-4-|4-4-4-4-4-4-4-4-|

E :3-3-3-3-3-3-3-3-|3-3-3-3-3-3-3-3-|2-2-2-2-2-2-2-2-|2-2-2-2-2-2-0-2-|

 

 

E :----------------|----------------|----------------|----------------|

B :----------------|----------------|----------------|----------------|

G :----------------|----------------|----------------|----------------|

D :5-5-5-5-5-5-5-5-|5-5-5-5-5-5-5-5-|4-4-4-4-4-4-4-4-|4-4-4-4-4-4-4-4-|

A :5-5-5-5-5-5-5-5-|5-5-5-5-5-5-5-5-|4-4-4-4-4-4-4-4-|4-4-4-4-4-4-4-4-|

E :3-3-3-3-3-3-3-3-|3-3-3-3-3-3-3-3-|2-2-2-2-2-2-2-2-|2-2-2-2-2-2-0-2-|

 

 

E :----------------|----------------|----------------|----------------|

B :----------------|----------------|----------------|----------------|

G :----------------|----------------|----------------|----------------|

D :5-5-5-5-5-5-5-5-|5-5-5-5-5-5-5-5-|4-4-4-4-4-4-4-4-|4-4-4-4-4-4-4-4-|

A :5-5-5-5-5-5-5-5-|5-5-5-5-5-5-5-5-|4-4-4-4-4-4-4-4-|4-4-4-4-4-4-4-4-|

E :3-3-3-3-3-3-3-3-|3-3-3-3-3-3-3-3-|2-2-2-2-2-2-2-2-|2-2-2-2-2-2-0-2-|

 

 

E :----------------|----------------|----------------|----------------|

B :----------------|----------------|----------------|----------------|

G :----------------|----------------|----------------|----------------|

D :5-5-5-5-5-5-5-5-|5-5-5-5-5-5-5-5-|4-4-4-4-4-4-4-4-|4-4-4-4-4-4-4-4-|

A :5-5-5-5-5-5-5-5-|5-5-5-5-5-5-5-5-|4-4-4-4-4-4-4-4-|4-4-4-4-4-4-4-4-|

E :3-3-3-3-3-3-3-3-|3-3-3-3-3-3-3-3-|2-2-2-2-2-2-2-2-|2-2-2-2-2-2-0-2-|

 

 

Return to my to my Blink 182 tabs page

The Tablature is Copyright its respective owners.

 

Sign Up For My Newsletter
Subscribe | Unsubscribe

Site Map | Disclaimer | Privacy Policy | Media Kit | Submissions/Corrections

Website © 2000-2014 mattsmusicpage.com. All rights reserved.

Legal & DMCA: Matt's Music Page has been providing lyrics and tabs in a legal way, paying royalties each year to a few organizations. Then, all lyrics and tabs were removed from the site. Now, there's a new owner to the site, which purchased it August 26, 2014, and he is in negotiation to obtain licensing from BMI at the moment. If you have a specific DMCA request -- please do not hesitate to contact me via the contact button on top. I will do my very best to keep this site fully legal.

Get our toolbar!

 

Hard Rock Pin Las Vegas 4th of july red white and blue guitar
$5.0
Hard Rock Pin Las Vegas 4th of july red white and blue guitar picture


Hard Rock Pin Hollywood Fl Bell Girl with dice luggage and guitar
$5.0
Hard Rock Pin Hollywood Fl Bell Girl with dice luggage and guitar picture


Hard Rock Pin Las Vegas King of Clubs Guitar rare only 3 lines of info on back
$5.0
Hard Rock Pin Las Vegas King of Clubs Guitar rare only 3 lines of info on back picture


Hard Rock Pin Edmonton guitar pin
$5.0
Hard Rock Pin Edmonton guitar pin picture


Lladro Guitar Boy #4614 - Beautiful Piece of Lladro
$109.0
Lladro Guitar Boy #4614 - Beautiful Piece of Lladro picture