Your One-Stop Source For
Music Lyrics
Bass and Guitar Tabs
and More...
Music Lyrics Bass and Guitar Tabs

 

The Tabs Are Below

Learn To Read Tab
Chords Handbook
Corrections & Additions
Get Official Tab
Blink 182 tabs @ 911Tabs

 

Blink 182- Shut up

 

Tabbed by max

 

 

Intro- Repeat a few times except for bit in bracket

 

E---------------------------------------------------------------------------

B------------------------------------5-------5-------5-------5--------------

G-(2-2-2-2-2-2-2-2)----------------2---2---2---2---2---2---2---2------------

D---------------------------------------------------------------------------

A--------------------------------0-------0-------4-------5------------------

E---------------------------------------------------------------------------

 

Bass part for a while, then intro for a bit again, then

 

E---------------------------------------------------------------------------

B---------------------------------------------------------------------------

G----------------6---------7------------------------------------------------

D----7-----------6---------7------------------------------------------------

A----7-----------4---x4----5---x4-------------------------------------------

E----5---x8-----------------------------------------------------------------

 

I’ll never ask permission of you

 

E---------------------------------------------------------------------------

B---------------------------------------------------------------------------

G------7------------------14------------------------------------------------

D------7-------7----------14------------------------------------------------

A------5-------7----------12------------------------------------------------

E--------------5------------------------------------------------------------

 

I’m not coming home... Repeat a few times.

 

E--------------------------------------------------------------------------

B--------------------------------------------------------------------------

G--------------------------------------------------------------------------

D------9-------12----------------------------------------------------------

A------9-------12----------------------------------------------------------

E------7-x8----10-x8-------------------------------------------------------

 

Put other parts where necessary, then.

 

I’ll run away...

 

E-----------------------------------------------------------------------

B-----------------------------------------------------------------------

G-------9----------11---------7----------------------------------------- x6

D-------9----------11---------7-----------------------------------------

A-------7-x9-------9---x4-----5-x3--------------------------------------

E-----------------------------------------------------------------------

 

 

 

 

Solo bit

 

E--------------------------------------------------------------------

B--------------------------------------------------------------------

G--------------------------------------------------------------------

D-77777777---6666---4444---11-11-11-11-11-11-11-11---9999---7777----- x2

A--------------------------------------------------------------------

E--------------------------------------------------------------------

 

Then repeat other parts until song ends.

 

if you have any comments email me at punkrocker6969@hotmail.com

 

Return to my to my Blink 182 tabs page

The Tablature is Copyright its respective owners.

 

Sign Up For My Newsletter
Subscribe | Unsubscribe

Site Map | Disclaimer | Privacy Policy | Media Kit | Submissions/Corrections

Website © 2000-2014 mattsmusicpage.com. All rights reserved.

Legal & DMCA: Matt's Music Page has been providing lyrics and tabs in a legal way, paying royalties each year to a few organizations. Then, all lyrics and tabs were removed from the site. Now, there's a new owner to the site, which purchased it August 26, 2014, and he is in negotiation to obtain licensing from BMI at the moment. If you have a specific DMCA request -- please do not hesitate to contact me via the contact button on top. I will do my very best to keep this site fully legal.

Get our toolbar!