Your One-Stop Source For
Music Lyrics
Bass and Guitar Tabs
and More...
>Music Lyrics Bass and Guitar Tabs

 

The Tabs Are Below

Learn To Read Tab
Chords Handbook
Corrections & Additions
Get Official Tab
Blink 182 tabs @ 911Tabs

 

-----------------------------------------------------------------------------

Roller Coaster

-----------------------------------------------------------------------------

 

Artist: Blink 182

Song: Roller Coaster

Album: Take Off Your Pants And Jacket

Tabbed By: Craig Sauers

Email: enthused45@hotmail.com

Date: July 7, 2001

 

Intro clean

-----------------

-----------------

-6--6-7----------

--7-----7-7------

---------0-------

-----------------

 

Riff 1 clean

---------------------------

---------------------------

---------------------------

--7-x8---7-x2---7-x2---7-x2

00-----55-------------55---

--------------77-----------

 

Riff 2 distortion

 

---------------------------------------------------

---------------------------------------------------

---------------------------------------------------

---------------------------------------------------

-4--4-5-------4--4-5-------4--4-5-------4--4-5-----

---5---5-5-5----5---5-5-5----5---5-5-7----5---5-5-5

 

Verse distortion (basically Tom just plays around with these chords the whole

song. So I'm just gonna give you the chords and I hope you can figure out the

rhthym on your own.)

 

A----D----B------

-----------------

-----7-----------

7----7----9------

7----5----9------

5---------7------

 

end on A

 

------------

------------

------------

---------7--

---------7--

---------5--

 

That's it. Pretty damn easy if ya ask me. Any corrections just email me but

this is probably about 99.9% correct.

 

Return to my to my Blink 182 tabs page

The Tablature is Copyright its respective owners.

 

Sign Up For My Newsletter
Subscribe | Unsubscribe

Site Map | Disclaimer | Privacy Policy | Media Kit | Submissions/Corrections

Website © 2000-2014 mattsmusicpage.com. All rights reserved.

Legal & DMCA: Matt's Music Page has been providing lyrics and tabs in a legal way, paying royalties each year to a few organizations. Then, all lyrics and tabs were removed from the site. Now, there's a new owner to the site, which purchased it August 26, 2014, and he is in negotiation to obtain licensing from BMI at the moment. If you have a specific DMCA request -- please do not hesitate to contact me via the contact button on top. I will do my very best to keep this site fully legal.

Get our toolbar!

 

Artist Signed Vintage Postcard Harrison Fischer 2040 Love Lyrics Woman Laying
$24.99
Artist Signed Vintage Postcard Harrison Fischer 2040 Love Lyrics Woman Laying picture


Dominican Republic National Anthem Music and Lyrics
$75.0
Dominican Republic National Anthem Music and Lyrics picture


Princeton University The Triangle Club SAMARKAND 12/20/1926 Baltimore Lyric thea
$12.99
Princeton University The Triangle Club SAMARKAND 12/20/1926 Baltimore Lyric thea picture


CooL Vintage Song Book (Lyrics only) Governor Clinton Hotel Kingston, New York
$0.99
CooL Vintage Song Book (Lyrics only) Governor Clinton Hotel Kingston, New York picture


BABY BOY IN BLUE RABBIT SUIT MUSIC BOX SIGNED LON-E PLAYS BRAMS' LULLABY LYRICS
$14.95
BABY BOY IN BLUE RABBIT SUIT MUSIC BOX SIGNED LON-E PLAYS BRAMS' LULLABY LYRICS picture