Your One-Stop Source For
Music Lyrics
Bass and Guitar Tabs
and More...
Music Lyrics Bass and Guitar Tabs

 

The Tabs Are Below

Learn To Read Tab
Chords Handbook
Corrections & Additions
Get Official Tab
Blink 182 tabs @ 911Tabs

 

Title-Rock show

 

Artist-Blink 182

 

Album-toypaj

 

 

 

Palm mute- * * * * * * * * * *

 

INTRO

E-------------------------------------------------------------

 

B-------------------------------------------------------------

 

G-------------------------------------------------------------

 

D-----7-7-7------------------------7---------------------------

 

A------7-7-7----7-5-4-0-0-0---5--7-5-4-7-4 0----------

 

E------5-5-5-------------------------------------------------

 

 

 

E-------------------------------------------------------------------

 

B-------------------------------------------------------------------

 

G-------------------------------------------------------------------

 

D----7-7-7-7-7-7-7-7-7-7-7-7-7-------------------------------

 

A----7-7-7-7-7-7-7-7-7-7-7-7-7-------------------------------

 

E----5-5-5-5-5-5-5-5-5-5-5-5-5--------------------------------

 

* * * * * * * * * * * * * *

 

VERSE

 

E-----------------------------------------------------------------------------------------------

 

B----------------------------------------------------------------------------------------------

 

G-----------------------------------------7---7-7-7-7-7-----9---9-9-9-9-9-----------------

 

D------7---7-7-7-7-7-7-7-7-7-7------7---7-7-7-7-7-----9---9-9-9-9-9-----------------

 

A------7---7-7-7-7-7-7-7-7-7-7------5---5-5-5-5-5-----7---7-7-7-7-7-----------------

 

E------5---5-5-5-5-5-5-5-5-5-5------------------------------------------------------------

 

* * * * * * * * * * * * * * * * * * * * *

 

 

 

CHOURS

 

E------------------------------------------------------------------------------------

 

B------------------------------------------------------------------------------------

 

G--------------------------------7-7------------------------------------------------

 

D---7--7-7-7-7------4--4-----7--7-----------------------------------------------

 

A---7--7-7-7-7------4--4-----5--5------------------------------------------------

 

E---5--5-5-5-5-------2--2---------------------------------------------------------

 

 

 

 

 

E---------------------------------------------------------------------------------------------------------

 

B---------------------------------------------------------------------------------------------------------

 

G--------------------7-7-7-------------------------7-7-7--------------------------7----6-------------

 

D-2-2-2-2-2-2-----7-7-7------2-2-2-2-2-2-----7-7-7------2-2-2-2-2-2------7----6--------------

 

A-2-2-2-2-2-2-----5-5-5------2-2-2-2-2-2-----5-5-5------2-2-2-2-2-2------5----4--------------

 

E---------------------------------------------------------------------------------------------------------

 

palm mute all except last two notes

 

BASS- THE BASS ONLY PLAYS

 

 

 

 

 

BRIDGE

 

 

 

 

 

E---------------------------------------------------------------------------------------------------

 

B----2-------2-------3---------2---------2-------3-----2-------2-----3----0---0------2--------

 

G--------2-------2--------2--------2---------2------2-------2------2----2---2-----2------2------

 

D------------------------------------------------------------------------------------------- ------------

 

A---------------------------------------------------------------------------------------------------------

 

E----------------------------------------------------------------------------------------------------------

 

 

 

 

 

SONG ORDER

 

 

 

INTRO X4

 

VERSE X2

 

IINTRO X4

 

CHOURS

 

BASS

 

CHOURS

 

INTRO X-A LOT

 

Return to my to my Blink 182 tabs page

The Tablature is Copyright its respective owners.

 

Sign Up For My Newsletter
Subscribe | Unsubscribe

Site Map | Disclaimer | Privacy Policy | Media Kit | Submissions/Corrections

Website © 2000-2014 mattsmusicpage.com. All rights reserved.

Legal & DMCA: Matt's Music Page has been providing lyrics and tabs in a legal way, paying royalties each year to a few organizations. Then, all lyrics and tabs were removed from the site. Now, there's a new owner to the site, which purchased it August 26, 2014, and he is in negotiation to obtain licensing from BMI at the moment. If you have a specific DMCA request -- please do not hesitate to contact me via the contact button on top. I will do my very best to keep this site fully legal.

Get our toolbar!

 

VINTAGE SORRENTO MUSIC JEWELRY BOX
$45.0
VINTAGE SORRENTO MUSIC JEWELRY BOX picture


VINTAGE LACQUERED MUSIC BOX JAPAN
$25.99
VINTAGE LACQUERED MUSIC BOX JAPAN picture


Vintage Kehlsteinhaus Bavaria Germany Colorscope Cow Bell View Master Music Box
$8.99
Vintage Kehlsteinhaus Bavaria Germany Colorscope Cow Bell View Master Music Box picture


VINTAGE SCHMIDT Signed Collectible Musical Turning Clown
$9.99
VINTAGE  SCHMIDT Signed Collectible Musical Turning Clown picture


Vintage - Linen - Postcard - Stage - Radio City Music Hall - New York City
$3.75
Vintage - Linen - Postcard - Stage - Radio City Music Hall - New York City   picture